Oops, an error
Loading. Please wait.

My Wreckage Of My Flesh tab

615 views 1 this week
2 commentsread comments
1 2 3 4 5
3 more votes to show rating
add to favorites
×
Save as Personal and add changes to this tab that will be seen only by you. Learn more ›
×
You can save this tab as Personal to edit and correct it or add notes. All changes will be seen only by you. Learn more »
launch autoscroll
font size
0
reset
how to read this tab
guitar tuner
edit
Autoscroll
slow
fast
+/-
esc
set tempo
stop
Author
                        SONGS OF DARKNESS, WORDS OF LIGHT
                          (c) Peaceville Records - 2004

                              Tune Down 1 & 1/2 Steps
                                  C# F# B E G# C#

                                  Tempo = 115 BPM
                                Time Signature = 4/4

                          -----------------------------
                                  Transcribed by

                                  PADDY MCMULLAN
                            stinkypoohpants@yahoo.co.uk

                                   Version 1.3
                     (Corrections Outlined at Bottom of Tab)

                             -----------------------

                             Tablature Symbols Used:


 p         -  Pull-Off
 h         -  Hammer-On
 \         -  Slide Down to/Down From
 /         -  Slide Up To/Up From
 ( / )     -  Legato Slide
 ( )       -  Ghost Note/Tied Note/Implied Note
 5/4       -  Time signature of 5 beats per bar (Indicated in bar line)
 4/4       -  Time signature of 4 beats per bar (Indicated in bar line)
 REST      -  Rest and sustain rest for duration of blank space


================================================================================
Intro: Guitars 1 and 2 with heavy distortion (Play once)
================================================================================


||--------------------|---------------------||
||--------------------|---------------------||
||--------------------|---------------------||
||--2----2------------|--(2)----------------||
||--2----2------------|--(2)----------------||
||--0----0------------|--(0)----------------||



================================================================================
Riff 1: Guitars 1 and 2 (Play twice)
================================================================================


||-------------------|------------------|------------------|------------------|
||-------------------|------------------|------------------|------------------|
||-------------------|------------------|------------------|------------------|
||-------------------|------------------|------------------|------------------|
||--7----------------|--(7)-------------|--(7)-------------|--(7)-------------|
||-------------------|------------------|------------------|------------------|


|-------------------|------------------|------------------|------------------|
|-------------------|------------------|------------------|------------------|
|-------------------|------------------|------------------|------------------|
|-------------------|------------------|------------------|------------------|
|--7----------------|--(7)-------------|--(7)-------------|--(7)-------------|
|-------------------|------------------|------------------|------------------|


|-------------------|------------------|------------------|------------------|
|-------------------|------------------|------------------|------------------|
|-------------------|------------------|------------------|------------------|
|-------------------|------------------|------------------|------------------|
|--7----------------|--(7)-------------|--(7)-------------|--(7)-------------|
|-------------------|------------------|------------------|------------------|


|-------------------|---------------------|------------------|---------------| |
|-------------------|---------------------|------------------|---------------| |
|-------------------|---------------------|------------------|---------------|*|
|-------------------|---------------------|------------------|---------------|*|
|-------------------|---------------------|------------------|---------------| |
|--8----------------|--5--------7----0----|--0---------------|--(0)----------| |



================================================================================
Riff 2a: Guitar 1 (Play 8 times)
================================================================================


||-------------------|---------------------|-----------------|---------------| |
||-------------------|---------------------|-----------------|---------------| |
||-------------------|---------------------|-----------------|---------------|*|
||-------------------|---------------------|-----------------|---------------|*|
||-------------------|---------------------|-----------------|---------------| |
||--8----------------|--5--------7----0----|--0--------------|--(0)----------| |



================================================================================
Riff 2b: Guitar 2 (Play twice) Note that the last 4 bars are the same as Riff 2a
================================================================================


||-----------------|---------------------|-------------------|-----------------|
||-----------------|---------------------|-------------------|-----------------|
||-----------------|---------------------|-------------------|-----------------|
||-----------------|---------------------|-------------------|-----------------|
||--7--------------|-----------5---------|-------------------|-----------------|
||-----------------|--8-------------3----|--3----------------|--(3)------------|


|-----------------|---------------------|-------------------|------------------|
|-----------------|---------------------|-------------------|------------------|
|-----------------|---------------------|-------------------|------------------|
|-----------------|---------------------|-------------------|------------------|
|--7--------------|-----------5---------|-------------------|------------------|
|-----------------|--8-------------3----|--3----------------|--(3)-------------|


|-----------------|---------------------|-------------------|------------------|
|-----------------|---------------------|-------------------|------------------|
|-----------------|---------------------|-------------------|------------------|
|-----------------|---------------------|-------------------|------------------|
|--7--------------|-----------5---------|-------------------|------------------|
|-----------------|--8-------------3----|--3----------------|--(3)-------------|


|-------------------|---------------------|------------------|---------------| |
|-------------------|---------------------|------------------|---------------| |
|-------------------|---------------------|------------------|---------------|*|
|-------------------|---------------------|------------------|---------------|*|
|-------------------|---------------------|------------------|---------------| |
|--8----------------|--5--------7----0----|--0---------------|--(0)----------| |



================================================================================
Riff 3a: Guitar 1 (Play 6 times) After 1st time replace Bar 1 with Supplement
================================================================================


 //      Bar 1      \\
||--------------------|---------------------------|----------------------|
||--------------------|---------------------------|----------------------|
||--------------------|---------------------------|----------------------|
||--------------------|---------------------------|----------------------|
||-/7--------7--------|--(7)----7---(7/10)--10----|-(10\ 9)-9------------|
||--------------------|---------------------------|----------------------|


|----------------------------|-----------------------|-------------------------|
|----------------------------|-----------------------|-------------------------|
|----------------------------|-----------------------|-------------------------|
|----------------------------|-----------------------|-------------------------|
|--(9)----(9/10)-10----10----|--10\   3--------------|--(3)---3/   10----10----|
|----------------------------|-----------------------|-------------------------|


|-----------------------|--------------------------------| |
|-----------------------|--------------------------------| |
|-----------------------|--------------------------------|*|
|-----------------------|--------------------------------|*|
|--10--12p10-9----------|--(9)----9h 10--(10/12)--10p 9--| |
|-----------------------|--------------------------------| |


        ==============
        | Supplement |
        ==============

        |----------------------------|
        |----------------------------|
        |----------------------------|
        |----------------------------|
        |--10p 9--7------------------|
        |----------------------------|



================================================================================
Riff 3b: Guitar 2 (Play 6 times) After 1st time replace Bar 1 with Supplement
================================================================================


 //      Bar 1      \\
||--------------------|---------------------|---------------------|
||--------------------|---------------------|---------------------|
||--------------------|---------------------|---------------------|
||--------------------|---------------------|---------------------|
||--------------------|----------------5----|--(5\2)--2-----------|
||--0--------0--------|------0---/3---------|---------------------|


|-------------------------|---------------------|---------------------|
|-------------------------|---------------------|---------------------|
|-------------------------|---------------------|---------------------|
|-------------------------|---------------------|---------------------|
|--(2)----(2/3)-3----3----|-(3/7)--7------------|--(7)---(7/ 3)---3---|
|-------------------------|---------------------|---------------------|


|---------------------|------------------------| |
|---------------------|------------------------| |
|---------------------|------------------------|*|
|---------------------|------------------------|*|
|--3p 0--0------------|--(0)----0----2----2----| |
|---------------------|------------------------| |


        ==============
        | Supplement |
        ==============

        |----------------------|
        |----------------------|
        |----------------------|
        |----------------------|
        |--2-------------------|
        |-----0--0----0--------|



================================================================================
Riff 4a: Guitar 1 (Play 4 times with lead Riff 1)
================================================================================


*On the fourth repeat allow the last note of the riff to ring out*

||----------------------|----------------------|-----------------------|
||----------------------|----------------------|-----------------------|
||----------------------|----------------------|-----------------------|
||----------------------|----------------------|-----------------------|
||----------------------|----------------------|-----------------------|
||--0----3----3----3----|--0----0----2----2----|--2h 3--2--------2h 3--|


                                                             //  Last note   \\
| |----------------------------| |--------------------------|----------------| |
| |----------------------------| |--------------------------|----------------| |
|5|----------------------------|4|--------------------------|----------------|*|
|/|----------------------------|/|--------------------------|----------------|*|
|4|-----------------------2----|4|--------------------------|----------------| |
| |--2----2----2h 3--2---------| |--0----0----0----0--------|--(0)-----------| |



================================================================================
Riff 4b: Guitar 2 (Play 4 times with lead Riff 1)
================================================================================


*On the fourth repeat allow the last note of the riff to ring out*

||----------------------|----------------------|-----------------------|
||----------------------|----------------------|-----------------------|
||----------------------|----------------------|-----------------------|
||----------------------|----------------------|-----------------------|
||-------2----2----2----|----------------------|-----------------------|
||--0-------------------|--0----0----5----5----|--5h 7--5--------5h 7--|


                                                             //  Last note   \\
| |----------------------------| |--------------------------|----------------| |
| |----------------------------| |--------------------------|----------------| |
|5|----------------------------|4|--------------------------|----------------|*|
|/|----------------------------|/|--------------------------|----------------|*|
|4|----------------------------|4|--------------------------|----------------| |
| |--5----5----5h 7--5----7----| |--0----0----0----0--------|--(0)-----------| |



================================================================================
Lead Riff 1: Guitar 3 (Play once, enter on first repeat of Riffs 4a/4b)
================================================================================


||-------------------|------------------------|---------------------|
||-------------------|------------------------|---------------------|
||--9----------------|--(9)----(12\ 7)--------|--(7)----------------|
||-------------------|------------------------|---------------------|
||-------------------|------------------------|---------------------|
||-------------------|------------------------|---------------------|


|-----------------------------|-------------------|---------------------|
|-----------------------------|-------------------|---------------------|
|--(7)--9--9-----------(12\   |  9)---------------|--(9)----------------|
|-----------------------------|-------------------|---------------------|
|-----------------------------|-------------------|---------------------|
|-----------------------------|-------------------|---------------------|


|---------------------|------------------------|------------------------|
|---------------------|------------------------|------------------------|
|--/16----------------|--(16)--------14--------|--(14)------------16----|
|---------------------|------------------------|------------------------|
|---------------------|------------------------|------------------------|
|---------------------|------------------------|------------------------|


|--------------------------|--------------------|----------------------|
|--------------------------|--------------------|----------------------|
|--17----------------14----|--16----------------|--(16)----------------|
|--------------------------|--------------------|----------------------|
|--------------------------|--------------------|----------------------|
|--------------------------|--------------------|----------------------|


|------------------------|------------------------|------------------------|
|------------------------|------------------------|------------------------|
|--/21----/21------------|--(21)--------19--------|--(19)-----------\14----|
|------------------------|------------------------|------------------------|
|------------------------|------------------------|------------------------|
|------------------------|------------------------|------------------------|


|--------------------------|----------------------|----------------------|
|--------------------------|----------------------|----------------------|
|--16----------------17----|--14----16------------|--(16)----------------|
|--------------------------|----------------------|----------------------|
|--------------------------|----------------------|----------------------|
|--------------------------|----------------------|----------------------|


|----------------------||
|----------------------||
|--(16)----------------||
|----------------------||
|----------------------||
|----------------------||

Allow notes to fade out.


================================================================================
All guitars fade out for keyboard solo
================================================================================


================================================================================
Riff 5: Guitars 1 and 2 (Play 4 times)
================================================================================


*On the last repeat replace the last bar with the supplement*

||--------------------|------------------------|--------------------|
||--------------------|------------------------|--------------------|
||--------------------|------------------------|--------------------|
||--2--------2--------|--(2)----2/   5----5----|--4--------4--------|
||--2--------2--------|--(2)----2/   5----5----|--4--------4--------|
||--0--------0--------|--(0)----0/   3----3----|--2--------2--------|


|------------------------|--------------------|------------------------|
|------------------------|--------------------|------------------------|
|------------------------|--------------------|------------------------|
|--(4)----4----5----5----|--5--------5--------|--(5)----5----5----5----|
|--(4)----4----5----5----|--3--------3--------|--(3)----3----5----5----|
|--(2)----2----3----3----|--3--------3--------|--(3)----3----3----3----|


                      //       Last Bar       \\
|--------------------|------------------------| |
|--------------------|------------------------| |
|--------------------|------------------------|*|
|--4--------4--------|--(4)----4/   5----5----|*|
|--4--------4--------|--(4)----4/   5----5----| |
|--2--------2--------|--(2)----2/   3----3----| |


        ==============
        | Supplement |
        ==============

        |------------------------||
        |--------------------R   ||
        |--------------------E   ||
        |--(4)----4/   5--5--S   ||
        |--(4)----4/   5--5--T   ||
        |--(2)----2/   3--3------||



================================================================================
Guitars 1 and 2 play Riffs 4a/4b 4 times
================================================================================


================================================================================
Lead Riff 2: Guitar 3 (Play once, enter on first repeat of Riffs 4a/4b)
================================================================================


||---------------------|--------------------|---------------------|
||---------------------|--------------------|---------------------|
||---------------------|--------------------|---------------------|
||--(9/10)-------------|--9--------7--------|--(7)----------------|
||---------------------|--------------------|---------------------|
||---------------------|--------------------|---------------------|


| |---------------------------| |---------------------|----------------------|
| |---------------------------| |---------------------|----------------------|
|5|---------------------------|4|---------------------|----------------------|
|/|--(9/10)----------9--------|/|--/14----------------|--(14)----------------|
|4|---------------------------|4|---------------------|----------------------|
| |---------------------------| |---------------------|----------------------|


|------------------------|------------------------|----------------------|
|------------------------|------------------------|----------------------|
|------------------------|------------------------|----------------------|
|--(16/17)---------16----|--(16)--------14--------|--(14)----------------|
|------------------------|------------------------|----------------------|
|------------------------|------------------------|----------------------|


| |----------------------------| |----------------------|------------------|
| |----------------------------| |----------------------|------------------|
|5|----------------------------|4|----------------------|------------------|
|/|--(16/17)---------16--------|/|--(16)----------14----|--(14)------------|
|4|----------------------------|4|----------------------|------------------|
| |----------------------------| |----------------------|------------------|


|----------------------|-------------------|----------------------|
|----------------------|-------------------|----------------------|
|----------------------|-------------------|----------------------|
|--(9/10)----------9---|--(9)------7-------|--(7)---------(9/10)--|
|----------------------|-------------------|----------------------|
|----------------------|-------------------|----------------------|


| |-----------------------------| |------------------|------------------||
| |-----------------------------| |------------------|------------------||
|5|-----------------------------|4|------------------|------------------||
|/|--(10)--------9--------14----|/|--(14)------------|--(14)------------||
|4|-----------------------------|4|------------------|------------------||
| |-----------------------------| |------------------|------------------||



================================================================================
Guitars 1 and 2 play Riff 1 twice, allowing the final notes to ring out
================================================================================


================================================================================
End
================================================================================


Tab summary:        Intro X 1
                    Riff 1 X 1
                    Riff 2a X 8 + Riff 2b X 2
                    Riff 3a + 3b X 6
                    Riff 4a + 4b X 4
                    Lead Riff 1 X 1
                    Riff 5 X 4
                    Riff 4a + 4b X 4
                    Lead Riff 2 X 1
                    Riff 1 X 2

                    END
Suggest correction
Creating personal tab
Creating personal tab
You can edit any tab online and save it as your Personal.

You can edit, replace or remove any tab part or add personal notes – all changes will be seen only by you.

Personal tabs can be accessed anytime from any device, even offline.
Learn more »
Give kudos to tab author, rate the tab!
1 2 3 4 5
comments
print report bad tab
2 comments total.
+1 reply
randy_roads 80 Jan 19, 2006 11:36 PM

Dude, its THE Wreckage of my Flesh

+1 reply
paddyirishman 7,740 Aug 17, 2008 06:14 AM

Why did you submit a tab transcribed by ME? And yes, it's THE Wreckage of My Flesh:

http://metaltabs.com/tab/7629/

guest
You may want to rate the tab now too:
select rating
Wanna post a correction for this tab? Suggest correction