Oops, an error
Loading. Please wait.

One Of Beautys Daughters Bass Tab

version 1
version 1

Whole song

Interactive

130 views 1 this week
1 commentread comment
1 2 3 4 5
please rate
add to favorites
launch autoscroll
font size
0
reset
guitar tuner
Autoscroll
slow
fast
+/-
esc
set tempo
stop
Help us to improve Ultimate-Guitar.com Take our survey!
×
Author
Difficulty
================================================================================
                           M Y   D Y I N G   B R I D E

                                        -

                 O N E   O F   B E A U T Y ' S   D A U G H T E R S
================================================================================


                            A LINE OF DEATHLESS KINGS
                          (c) Peaceville Records - 2006
                           http://www.mydyingbride.org/


                                  Standard Tuning
                                  [5-String Bass]
                                     B E A D G

                                   Tempo = 70 BPM
                                Time Signature = 4/4



                          -----------------------------
                                  Transcribed by

                                  PADDY MCMULLAN
                            pmtabs (@t) gmail [dot] com

                                   Version 2.0
                                20th  January 2010
                     (Corrections Outlined at Bottom of Tab)
                             -----------------------

                             Tablature Symbols Used:


 p         -  Pull-Off
 h         -  Hammer-On
 \         -  Slide Down to/Down From
 /         -  Slide Up To/Up From
 ( / )     -  Legato Slide
 ( )       -  Ghost Note/Tied Note/Implied Note
 REST      -  Rest and sustain rest for duration of blank space



================================================================================
Riff 1: Play 4 times
================================================================================


||-----------------------| |
||-----------------------|*|
||-----------------------| |
||--5--------------------|*|
||-------0--2------2--0--| |



================================================================================
Riff 2: Play 4 times
================================================================================


||--------------------------| |
||--------------------------|*|
||--------------------------| |
||--5---5-------------------|*|
||--------2--2----0--0h2-0--| |



================================================================================
Rest for 3 bars, then play the following bar once before proceeding
================================================================================


||--R-          ---------||
||--E-          ---------||
||--S-          ---------||
||--T-          -3-3-3-3-||
||-----------------------||



================================================================================
Riff 3: Play 5 times
================================================================================


||------------------------------|------------------------------|
||------------------------------|------------------------------|
||------------------------------|------------------------------|
||--2--2--3p 2-2--2--2--5p 2-2--|--2--2--3p 2-2--2--2--5p 2-2--|


|------------------------------|------------------------------| |
|------------------------------|------------------------------|*|
|------------------------------|----------------------1-1-1-1-|*|
|--2--2--3p 2-2--2--2--5p 2-2--|--2--2--3p 2-2--2--2----------| |



================================================================================
Riff 4: Play 4 times
================================================================================


||------------------------------|------------------------------|
||------------------------------|------------------------------|
||------------------------------|------------------------------|
||------------------------------|------------------------------|
||--2--2--3p 2-2--2--2--5p 2-2--|--2--2--3p 2-2--2--2--5p 2-2--|


|------------------------------|------------------------------| |
|------------------------------|------------------------------|*|
|------------------------------|------------------------------| |
|------------------------------|----------------------3-3-3-3-|*|
|--2--2--3p 2-2--2--2--5p 2-2--|--2--2--3p 2-2--2--2----------| |



================================================================================
Play Riff 3 four times
================================================================================

================================================================================
Play Riff 4 four times
================================================================================

================================================================================
Play Riff 1 four times
================================================================================

================================================================================
Play Riff 2 four times
================================================================================

================================================================================
Riff 5: Play once
================================================================================


||--------------------|--------------------|----------------------|
||--------------------|--------------------|----------------------|
||--------------------|--------------------|----------------------|
||--------------------|--------------------|----------------------|
||--5----5------------|--4----4------------|--5--------5-5--------|


|----------------------|--------------------|--------------------|
|----------------------|--------------------|--------------------|
|----------------------|--------------------|--------------------|
|----------------------|--------------------|--------------------|
|--4-----------2----4--|--5----5------------|--4----4------------|


|----------------------|-------------------|-------------------||
|----------------------|-------------------|-------------------||
|----------------------|-------------------|-------------------||
|----------------------|-------------------|-------------------||
|--5--------5-5--------|--4----------------|--(4)--------------||



================================================================================
End
================================================================================


Tab summary:        Riff 1 X 4
                    Riff 2 X 4
                    Riff 3 X 5
                    Riff 4 X 4
                    Riff 3 X 4
                    Riff 4 X 4
                    Riff 1 X 4
                    Riff 2 X 4
                    Riff 5 X 1
                    
                    END

-------------------------
Corrections (20/01/2010):
-------------------------

* Changed the tuning to standard 5-string.
Suggest correction
Give kudos to tab author, rate the tab!
1 2 3 4 5
comments
print report bad tab
1 comment total.
0 reply
paddyirishman 7,740 wrote on January 20 2010, 02:22 pm

An important update has been submitted, and should take effect shortly.

[ 20th January 2010 ]

guest
You may want to rate the tab now too:
select rating
Please do not post tabs as comments. Select "correction" instead!