Oops, an error
Loading. Please wait.

Prize Of Beauty bass

version 1
version 1

Whole song

Interactive

1,104 views 3 this week
no commentswrite comment
1 2 3 4 5
3 more votes to show rating
add to favorites
×
Save as Personal and add changes to this tab that will be seen only by you. Learn more ›
×
You can save this tab as Personal to edit and correct it or add notes. All changes will be seen only by you. Learn more »
launch autoscroll
font size
0
reset
guitar tuner
edit
Autoscroll
slow
fast
+/-
esc
set tempo
stop
Difficulty
Tabbed By : sear me
e-mail: dyukachayich@hotmail.com

Tuning:C#F#B E( down to up)

this is how i play it.its my first tab so be easy on me,been playing for 9 mmonths now.

Riff 1              1x rest 1x

|--------------------------------------------------------------------------------------|
|--------------------------------------------------------------------------------------|
|--------------------------------------------------------------------------------------|
|-0~----1--3--4~----4-3--1-------------------------------------------------------------|

Riff 2        1x rest 4x

|-------------------------------------------------------------------------------------|
|-------------------------------------------------------------------------------------|
|-------------------------------------------------------------------------------------|
|---x-0--x-4--x-3--x-1----------------------------------------------------------------|

Pre chorus thingy    4x

|-------------------------------------------------------------------------------------|
|-------------------------------------------------------------------------------------|
|--0-0-0-0-0-0-0-6--------------------------------------------------------------------|
|-------------------------------------------------------------------------------------|


Chorus          7x


|-------------------------------------------------------------|
|-------------------------------------------------------------|
|--------------------111111---------------------------111111--|
|-000000000000000000-----------2222222222222222222------------|

|------------------------------------------------------------------|
|------------------------------------------------------------------|
|--3333333333333333333333 111------------------------------111111--|
|----------------------------------22222222222222222222------------|

Riff 3               4x

|-----------------------------------------------------------------------|
|-----------------------------------------------------------------------|
|--999999999999 777777777777--------------------------------------------|
|-------------------------------777777777 7-10-9----333333----000--222--|

Riff 4            8x

|-------------------------------|
|-------------------------------|
|-------------------------------|
|--0000000000---666666--333555--|


this is basically it.bu you can play this at the end,when the piano and the guitar 
comes in.(noe there is no bass in the end,i arranged this myself)

|---------------------------------------------------------------------------|
|---------5~---------5------------7~--------7---------------9-~----------9--|
|---7~------------7--------99~-----------9--------11-11~-----------11-------|
|---------------------------------------------------------------------------|

|----------------------------------------------------------------------------------------|
|----------------------------------------------------------------------------------------|
|---1212~--------------------------------------------------------------------------------|
|-------------11~-----11-14-12-----------------------------------------------------------|

| /  slide up
| \  slide down
| h  hammer-on
| p  pull-off
| ~  vibrato
| +  harmonic
| x  Mute note
===============================================================================

thats it.please email me if yo have corrections or suggestions.:)
Suggest correction
Creating personal tab
Creating personal tab
You can edit any tab online and save it as your Personal.

You can edit, replace or remove any tab part or add personal notes – all changes will be seen only by you.

Personal tabs can be accessed anytime from any device, even offline.
Learn more »
Give kudos to tab author, rate the tab!
1 2 3 4 5
comments
print report bad tab
guest
Wanna post a correction for this tab? Suggest correction