Oops, an error
Loading. Please wait.

The Blood The Wine The Roses bass

version 1
version 1

Whole song

Interactive

103 views 1 this week
no commentswrite comment
1 2 3 4 5
3 more votes to show rating
add to favorites
×
Save as Personal and add changes to this tab that will be seen only by you. Learn more ›
×
You can save this tab as Personal to edit and correct it or add notes. All changes will be seen only by you. Learn more »
launch autoscroll
font size
0
reset
guitar tuner
edit
Autoscroll
slow
fast
+/-
esc
set tempo
stop
Author
Difficulty
================================================================================
                           M Y   D Y I N G   B R I D E

                                        -

          T H E   B L O O D,   T H E   W I N E,   T H E   R O S E S
================================================================================


                            A LINE OF DEATHLESS KINGS
                          (c) Peaceville Records (2006)
                           http://www.mydyingbride.org/


                             Tune Down  1 & 1/2 Steps
                                  G# C#  F# B E

                                  Tempo = 96 BPM
                               Time Signature = 4/4



                          -----------------------------
                                  Transcribed by

                                  PADDY MCMULLAN
                            pmtabs (@t) gmail [dot] com

                                   Version 1.0
                                 13th July 2012

                                   For Skye ;)
                             -----------------------

                             Tablature Symbols Used:


 p         -  Pull-Off
 h         -  Hammer-On
 \         -  Slide Down to/Down From
 /         -  Slide Up To/Up From
 ( / )     -  Legato Slide
 ( )       -  Ghost Note/Tied Note/Implied Note
 REST      -  Rest and sustain rest for duration of blank space
 |_3_|     -  Triplet Notes
 |__[1,2]  -  Alternative Endings


================================================================================
Section 1:                                                     [ 00:00 - 00:26 ]
================================================================================


||-------------------|----------------------||--------------------------|
||--R--            --|--              ------||-----R-  -----------------|
||--E--            --|--              ------||--7--E-  -----7---- \-----|
||--S--            --|--              --3/ -||--0--S-  -3/ -0--------3/ |
||--T----------------|----------------------||-----T-  -----------------|


|--------------------------|--------------------------|
|-----R-  -------R---------|-----R-  -----------------|
|-----E-  -------E---------|--7--E-  -----7---- \-----|
|--7--S-  -7--6--S- \--3/ -|--0--S-  -3/ -0--------3/ |
|-----T-  -------T---------|-----T-  -----------------|


|---------------------------|--------------------------|
|-----R-  ------------------|-----R-  -----------------|
|-----E-  ------------------|--7--E-  -----7---- \-----|
|--7--S-  -8-7-6---- \--3/--|--0--S-  -3/--0--------3 /|
|-----T-  ------------------|-----T-  -----------------|


|--------------------------|--------------------------|
|-----R-  -----------------|-----R-  -----------------|
|-----E-  -----------------|--7--E-  -----7---- \-----|
|--7--S-  -7--6---- \--3/--|--0--S-  -3/ -0--------3/ |
|-----T-  -----------------|-----T-  -----------------|


|---------------------------||
|-----R-  ------------------||
|-----E-  --------8p7-8--7--||
|--7--S-  -8-7-6------------||
|-----T-  ------------------||



================================================================================
Section 2:                                                     [ 00:26 - 01:06 ]
================================================================================


||------------------------------|------------------------------|
||------------------------------|------------------------------|
||--7-----------------8p7-8--7--|--5-----------------8p7-8--7--|
||-----0-0-0--0-0-0-------------|-----0-0-0--0-0-0-------------|
||------------------------------|------------------------------|

                               |_______________________[1,2,3]
|------------------------------|---------------------------| |
|------------------------------|---------------------------|*|
|--7-----------------8p7-8--7--|---------------------------| | x 4
|-----0-0-0--0-0-0-------------|--5p4-4----(4h5/7)----5----|*|
|------------------------------|---------------------------| |

|__________________________[4]
|---------------------------||
|---------------------------||
|---------------------------||
|--5p4-4----(4h5/7)----7----||
|---------------------------||



================================================================================
Section 3: Guitars 1 & 2                                       [ 01:06 - 01:46 ]
================================================================================


||-------------------|---------------------|---------------------|
||-------------------|---------------------|---------------------|
||--2----------------|--5---------------5--|--7---------------7--|
||-------------------|---------------------|---------------------|
||-------------------|---------------------|---------------------|


|---------------------|---------------------|---------------------|
|---------------------|---------------------|---------------------|
|--9---------------0--|--2---------------0--|--5---------------0--|
|---------------------|---------------------|---------------------|
|---------------------|---------------------|---------------------|


|---------------------|---------------------|---------------------|
|---------------------|---------------------|---------------------|
|--7---------------0--|--9---------------0--|--2---------------0--|
|---------------------|---------------------|---------------------|
|---------------------|---------------------|---------------------|


|---------------------|---------------------|---------------------|
|---------------------|---------------------|---------------------|
|--5---------------0--|--7---------------0--|--9---------------0--|
|---------------------|---------------------|---------------------|
|---------------------|---------------------|---------------------|


|---------------------|---------------------|---------------------|
|---------------------|---------------------|---------------------|
|--2---------------0--|--5---------------0--|--7---------------0--|
|---------------------|---------------------|---------------------|
|---------------------|---------------------|---------------------|


|-----------------------||
|-----------------------||
|--9------------ \------||
|-------------------3 / ||
|-----------------------||



================================================================================
Repeat Section 1 from Bar 3                                    [ 01:46 - 02:06 ]
================================================================================

================================================================================
Repeat Section 2                                               [ 02:06 - 02:46 ]
================================================================================

================================================================================
Repeat Section 3 with the following variations:                [ 02:46 - 03:35 ]
================================================================================


Repeat Section 3 as is, replacing the final bar with the following:


|-----------|------------|------------|------------||
|-----------|------------|------------|------------||
|-----------|------------|------------|------------||
|--2--------|--(2)-------|--(2)-------|--(2)-------||
|-----------|------------|------------|------------||


Hold the note, allowing it to ring out.


================================================================================
Section 4: Rest for 8 bars                                     [ 03:35 - 03:56 ]
================================================================================

================================================================================
Section 5:                                                     [ 03:56 - 04:21 ]
================================================================================


||-------------------|-----------------------|------------------------|
||--R--            --|-----------------------|------------------------|
||--E--            --|-----------------------|------------------------|
||--S--            --|--5--7--7-----------3--|--2-------2--0----0--0--|
||--T--            --|-----------------------|------------------------|


|-----------------------|------------------------|-----------------------|
|-----------------------|------------------------|-----------------------|
|-----------------------|------------------------|-----------------------|
|--5--7--7-----------3--|--2-------2--0-------0--|--5--7--7-----------3--|
|-----------------------|------------------------|-----------------------|


|------------------------|-----------------------|------------------------|
|------------------------|-----------------------|------------------------|
|------------------------|-----------------------|------------------------|
|--2-------2--0----0--0--|--5--7--7-----------3--|--2-------2--0----0--0--|
|------------------------|-----------------------|------------------------|


|---------------------||
|---------------------||
|---------------------||
|--5--7--7------------||
|---------------------||



================================================================================
Section 6:                                                     [ 04:21 - 04:40 ]
================================================================================


||---------------------|-----------------------|---------------------|
||---------------------|-----------------------|---------------------|
||---------------------|-----------------------|--7------------ \----|
||--0---------------0--|--8------8--7----7-----|--0------------------|
||---------------------|--------------------8--|---------------------|


|----------------------|---------------------|-----------------------|
|----------------------|---------------------|-----------------------|
|--3------3--2----2----|---------------------|-----------------------|
|----------------------|--0---------------0--|--8------8--7----7-----|
|----------------------|---------------------|--------------------8--|


|---------------------|-------------------------||
|---------------------|-------------------------||
|--7------------ \----|--3------3--2------------||
|--0------------------|---------------7p5-7--5--||
|---------------------|-------------------------||



================================================================================
Section 7:                                                     [ 04:40 - 05:00 ]
================================================================================


||-----------------------------|-----------------------------| |
||-----------------------------|-----------------------------|*|
||-----------------------------|-----------------------------| | x 4
||--5--0-0-0--0-0-0--7p5-7--5--|--3--0-0-0--0-0-0--7p5-7--5--|*|
||-----------------------------|-----------------------------| |



================================================================================
Section 8:                                                     [ 05:00 - 05:19 ]
================================================================================


                             |_______________________[1,2,3]
||---------------------------|---------------------------| |
||---------------------------|---------------------------|*|
||---------------------------|---------------------------| | x 4
||--0----0--0-0-0--0--0--3 / |--8----8 \ 3 / 7----7 \ 3--|*|
||---------------------------|---------------------------| |


|__________________________[4]
|---------------------------||
|---------------------------||
|---------------------------||
|--8----8 \ 3 / 7----7------||
|------------------------8--||



================================================================================
Repeat Section 3, replacing the final bar with the following:  [ 05:19 - 05:58 ]
================================================================================


|-------------------||
|-------------------||
|--9----------------||
|-------------------||
|-------------------||



================================================================================
Section 9: Guitars 1 & 2                                       [ 05:58 - 07:50 ]
================================================================================


||-------------------|----------------------|------------------------|
||-------------------|----------------------|------------------------|
||-------------------|----------------------|------------------------|
||--7----------------|--6------- \ 3--------|--2--3--2----2------2/ -|
||-------------------|----------------------|------------------------|


|------------------------|-------------------|----------------------|
|--5--4--2--2----4--4----|-------------------|----------------------|
|------------------------|-------------------|----------------------|
|------------------------|--7----------------|--6------- \ 3--------|
|------------------------|-------------------|----------------------|


|----------------------|-------------------| |
|----------------------|-------------------|*|
|----------------------|-------------------| | x 2
|--2--3--2----2--------|--(2)--------------|*|
|----------------------|-------------------| |


||-------------------|----------------------|----------------------|
||-------------------|----------------------|----------------------|
||-------------------|----------------------|----------------------|
||--7----------------|--6------- \ 3--------|--2--3--2----2--------|
||-------------------|----------------------|----------------------|


|-------------------| |
|-------------------|*|
|-------------------| | x 4
|--(2)--------------|*|
|-------------------| |



Hold the final note for a further 4 bars, then rest for 6 bars.



================================================================================
Outro:                                     [ Tempo = 108 BPM ] [ 07:50 - 08:23 ]
================================================================================


||-------------------|-------------------|-------------------------||
||--R--            --|--               --|-------------------------||
||--E--            --|--               --|--4----3-----3--4--3--0--||
||--S--            --|--               --|----------6--------------||
||--T--            --|--               --|-------------------------||


||--------------------------| |
||--------------------------|*|
||--4--4--3-----3--4--3--0--| | x 5
||-----------6--------------|*|
||--------------------------| |


||--------------------------| |
||--------------------------|*|
||--------4--3--------4--3--| | x 3
||--1--1--------3--3--------|*|
||--------------------------| |


||--------------------------||
||--------------------------||
||--------4--3--------4--3--||
||--1--1--------4--3--------||
||--------------------------||



================================================================================
End
================================================================================


Tab summary:        Section 1
                    Section 2
                    Section 3
                    Section 1
                    Section 2
                    Section 3
                    Section 4
                    Section 5
                    Section 6
                    Section 7
                    Section 8
                    Section 3
                    Section 9
                    Outro

                    END

            
            
Suggest correction
Creating personal tab
Creating personal tab
You can edit any tab online and save it as your Personal.

You can edit, replace or remove any tab part or add personal notes – all changes will be seen only by you.

Personal tabs can be accessed anytime from any device, even offline.
Learn more »
Give kudos to tab author, rate the tab!
1 2 3 4 5
comments
print report bad tab
guest
You may want to rate the tab now too:
select rating
Wanna post a correction for this tab? Suggest correction