Oops, an error
Loading. Please wait.

The Wreckage Of My Flesh bass

version 1
version 1

Whole song

Interactive

236 views 1 this week
no commentswrite comment
1 2 3 4 5
3 more votes to show rating
add to favorites
×
Save as Personal and add changes to this tab that will be seen only by you. Learn more ›
×
You can save this tab as Personal to edit and correct it or add notes. All changes will be seen only by you. Learn more »
launch autoscroll
font size
0
reset
guitar tuner
edit
Autoscroll
slow
fast
+/-
esc
set tempo
stop
Author
Difficulty
================================================================================
                           M Y   D Y I N G   B R I D E

                                        -

                 T H E   W R E C K A G E   O F   M Y   F L E S H
================================================================================


                        SONGS OF DARKNESS, WORDS OF LIGHT
                          (c) Peaceville Records (2004)
                           http://www.mydyingbride.org/


                              Tune Down 1 & 1/2 Steps
                                    G# C# F# B E

                                  Tempo = 115 BPM
                                Time Signature = 4/4



                          -----------------------------
                                  Transcribed by

                                  PADDY MCMULLAN
                            stinkypoohpants@yahoo.co.uk

                                   Version 1.0
                                10th January 2010
                             -----------------------

                             Tablature Symbols Used:


 p         -  Pull-Off
 h         -  Hammer-On
 \         -  Slide Down to/Down From
 /         -  Slide Up to/Up From
 ( / )     -  Legato Slide
 ( )       -  Ghost Note/Tied Note/Implied Note
 REST      -  Rest and sustain rest for duration of blank space
 |__[1,2]  -  Alternative Endings


================================================================================
Intro: Play once
================================================================================


||--------------------|---------------------||
||--------------------|---------------------||
||--------------------|---------------------||
||--0----0------------|--(0)----------------||
||--------------------|---------------------||



================================================================================
Section 1: Repeats outlined below
================================================================================


||--------------------------| |
||--------------------------|*|
||--------------------------| | x 12
||--0--0--0--0--0--0--0--0--|*|
||--------------------------| |


||--------------------------|----------------------------|
||--------------------------|----------------------------|
||--3--3--3--3--3--3--3--3--|--3p 0-0--0--0--2--2--------|
||--------------------------|----------------------0--0--|
||--------------------------|----------------------------|


|--------------------------|--------------------------| |
|--------------------------|--------------------------|*|
|--------------------------|--------------------------| | x 13
|--0--0--0--0--0--0--0--0--|--0--0--0--0--0--0--0--0--|*|
|--------------------------|--------------------------| |



================================================================================
Section 2: Play 6 times
================================================================================


||--------------------|----------------------------|
||--------------------|----------------------------|
||--7--------7--------|-(7)---7----(7/10)----10----|
||--------------------|----------------------------|
||--------------------|----------------------------|


|-----------------------|------------------------|-----------------------|
|-----------------------|------------------------|-----------------------|
|--(10\9)--9------------|-(9)---9----10----10----|--(10\9)---------------|
|-----------------------|------------------------|----------8------------|
|-----------------------|------------------------|-----------------------|


|------------------------|-----------------------|------------------------| |
|------------------------|-----------------------|------------------------|*|
|------------10----10----|--(10\9)--9------------|-(9)---9----10----10----| |
|-(8)---8----------------|-----------------------|------------------------|*|
|------------------------|-----------------------|------------------------| |



After the first time replace the first bar with the following:



||-----------------------|
||-----------------------|
||--(10\7)--7------------|
||-----------------------|
||-----------------------|



================================================================================
Section 3: Play 4 times
================================================================================


||----------------------|----------------------|----------------------|
||----------------------|----------------------|----------------------|
||----------------------|----------------------|----------------------|
||--0----3----3----3----|--0----0----2----2----|--2 h 3--2------------|
||----------------------|----------------------|----------------------|


|--------------------------|----------------------|--------------------| |
|--------------------------|----------------------|--------------------|*|
|--------------------------|-------2--------------|--------------------| |
|--2 h 3--2----2----2 h 3--|--2---------0----0----|--0----0------------|*|
|--------------------------|----------------------|--------------------| |



Allow the last note to ring for 4 bars



================================================================================
Rest for 8 bars
================================================================================

================================================================================
Section 4: Play 4 Times
================================================================================


||--------------------|----------------------|--------------------|
||--------------------|----------------------|--------------------|
||--------------------|----------------------|--------------------|
||--0--------0--------|-(0)---0----3----3----|--2--------2--------|
||--------------------|----------------------|--------------------|


|----------------------|--------------------|----------------------|
|----------------------|--------------------|----------------------|
|----------------------|--------------------|----------------------|
|-(2)---2----3----3----|--------------------|------------3----3----|
|----------------------|--1--------1--------|-(1)---1--------------|


|--------------------|----------------------| |
|--------------------|----------------------|*|
|--------------------|----------------------| |
|--2--------2--------|-(2)---2----3----3----|*|
|--------------------|----------------------| |



On the last repeat replace the last bar with the following:



|------------------R-  -||
|------------------E-  -||
|------------------S-  -||
|-(2)---2----3--3--T-  -||
|-----------------------||



================================================================================
Repeat Section 3 four times
================================================================================

================================================================================
Repeat Section 1 twice (last 4 bars), allowing the final notes to ring out
================================================================================

================================================================================
End
================================================================================


Tab summary:        Intro x 1
                    Section 1
                    Section 2 x 6
                    Section 3 x 4
                    Section 4 x 4
                    Section 3 x 4
                    Section 1 x 2

                    END

            
            
Suggest correction
Creating personal tab
Creating personal tab
You can edit any tab online and save it as your Personal.

You can edit, replace or remove any tab part or add personal notes – all changes will be seen only by you.

Personal tabs can be accessed anytime from any device, even offline.
Learn more »
Give kudos to tab author, rate the tab!
1 2 3 4 5
comments
print report bad tab
guest
You may want to rate the tab now too:
select rating
Wanna post a correction for this tab? Suggest correction