Oops, an error
Loading. Please wait.

Childbodybride Tab

536 views 1 this week
no commentswrite comment
1 2 3 4 5
please rate
add to favorites
launch autoscroll
font size
0
reset
how to read this tab
guitar tuner
Autoscroll
slow
fast
+/-
esc
set tempo
stop
Help us to improve Ultimate-Guitar.com Take our survey!
×
Author
Solo starting at 2:23 Sounds right to me. First tab. Email me if wrong, etc.


e|----------------------------------------------------------------------------|
b|----------------------------------------------------------------------------|
g|--8/10-~~--12----------------10---------------------------------------------|
d|--------------12~--12p10-8-------12--10--10/8~----10/12-10---8h10-12--------|
a|----------------------------------------------------------------------------|
E|----------------------------------------------------------------------------|

e|----------------------------------------------------------------------------|
b|----------------------------------------------------------------------------|
g|---8/10~~--12---------------10----------------------------------------------|
d|--------------12~--12p10-8----12--10--10/8~----10/12\10--8h10p8-------------|
a|-------------------------------------------------------------------10p8h10~-|
E|----------------------------------------------------------------------------|


e|----------------------------------------------------------------------------|
b|----------------------------------------------------------------------------|
g|---------------------------------------------------------10p8--10~~---------|
d|--8----------------8-----8--8/10\8~---10/12\10--8h10p8----------------------|
a|-----10~--10p8-10----10-----------------------------------------------------|
E|----------------------------------------------------------------------------|

e|----------------------------------------------------------------------------|
b|------------------10-------------11-------13--------------------------------|
g|--10/12--------------10--------------10--------10---------------------------|
d|---------12~--10~-------12--------------------------------------------------|
a|----------------------------------------------------------------------------|
E|----------------------------------------------------------------------------|

Suggest correction
Give kudos to tab author, rate the tab!
1 2 3 4 5
comments
print report bad tab
guest
You may want to rate the tab now too:
select rating
Wanna post a correction for this tab? Suggest correction