Oops, an error
Loading. Please wait.

The Doxology tab

by My Epic
187 views 27 this week
no commentswrite comment
1 2 3 4 5
3 more votes to show rating
add to favorites
×
Save as Personal and add changes to this tab that will be seen only by you. Learn more ›
×
You can save this tab as Personal to edit and correct it or add notes. All changes will be seen only by you. Learn more »
launch autoscroll
font size
0
reset
how to read this tab
guitar tuner
edit
Autoscroll
slow
fast
+/-
esc
set tempo
stop
Author
Difficulty
[Intro]
D |-------0-------0-------0-------0-------0---------------------------0-------0-------0-------0-------0-----|
A#|---0-------0-------0-------0-------0-------0---0---0---0---0---0-------0-------0-------0-------0-------0-|
F |--0---0---0---0---0---0---0---0---0---0---0---0---0---0---0---0---0---0---0---0---0---0---0---0---0---0--|
D |---------------------------------------------------------------------------------------------------------|
A |-1---1---1---1---1---1---1---1---1---1---0-----------1---3---5---5---5---5---5---5---5---5---5---5---5---|
D#|---------------------------------------------4---2-------------------------------------------------------|

D |------------------------0------0-------0-------0-------0---------------------------------|
A#|---0---0---0---0---0-------0-------0-------0-------0-------0---0---0---0---0---0---0---0-|
F |--0---0---0---0---0---0---0---0---0---0---0---0---0---0---0---0---0---0---0---0---0---0--|
D |-----------------------------------------------------------------------------------------|
A |-3---1---6---5---3---3---3---3---3---3---3---3---3---3---1---3---5---3---1-------0--1----|
D#|-----------------------------------------------------------------------------4-----------|

D |----0------0-------0-------0-------------------------------------0-|
A#|-------0-------0-------0-------0---0---0---0-----0---0---0---0-----|
F |--0---0---0---0---0---0---0---0---0---0---0-----0---0---0---0---0--|
D |-------------------------------------------------------------------|
A |-1---1---1---1---1---1---1---8---5---1---3---5h6---5---3---1---1---|
D#|-------------------------------------------------------------------|

[Verse]
D |-------0-------0-------0-------0-------0---------------------------0-------0-------0-------0-------0-----|
A#|---0-------0-------0-------0-------0-------0---0---0---0---0---0-------0-------0-------0-------0-------0-|
F |--0---0---0---0---0---0---0---0---0---0---0---0---0---0---0---0---0---0---0---0---0---0---0---0---0---0--|
D |---------------------------------------------------------------------------------------------------------|
A |-1---1---1---1---1---1---1---1---1---1---0-----------1---3---5---5---5---5---5---5---5---5---5---5---5---|
D#|---------------------------------------------4---2-------------------------------------------------------|

D |------------------------0------0-------0-------0-------0---------------------------------|
A#|---0---0---0---0---0-------0-------0-------0-------0-------0---0---0---0---0---0---0---0-|
F |--0---0---0---0---0---0---0---0---0---0---0---0---0---0---0---0---0---0---0---0---0---0--|
D |-----------------------------------------------------------------------------------------|
A |-3---1---6---5---3---3---3---3---3---3---3---3---3---3---1---3---5---3---1-------0--1----|
D#|-----------------------------------------------------------------------------4-----------|

D |----0------0-------0-------0-------------------------------------0-|
A#|-------0-------0-------0-------0---0---0---0-----0---0---0---0-----|
F |--0---0---0---0---0---0---0---0---0---0---0-----0---0---0---0---0--|
D |-------------------------------------------------------------------|
A |-1---1---1---1---1---1---1---8---5---1---3---5h6---5---3---1---1---|
D#|-------------------------------------------------------------------|

[Chorus]
D |-------0-------0-------0---------------0--------0-------0----------0-------0-------0-------0-------0-----|
A#|---0-------0-------0-------0---0---0-------0-------0-------0---0-------0-------0-------0-------0-------0-|
F |--0---0---0---0---0---0---0---0---0---0---0---0---0---0---0---0---0---0---0---0---0---0---0---0---0---0--|
D |---------------------------------------------------------------------------------------------------------|
A |-------------------------3---5---------------------------3---5-------------------------------------------|
D#|-4---4---4---4---4---4-----------2---2---2---2---2---2-----------0---0---0---0---0---0---0---0---0---0---|

D |----0-------0-------0---------------0--------0-------0----------0-------0-------0--------------0------0-|
A#|-------0-------0-------0---0---0-------0-------0-------0---0-------0-------0-------0---0---0-------0----|
F |--0---0---0---0---0---0---0---0---0---0---0---0---0---0---0---0---0---0---0---0---0---0---0---0---0---0-|
D |--------------------------------------------------------------------------------------------------------|
A |-------------------------------------------------3---5---------------------------3---5------------------|
D#|-0---0---0---0---0---0---4---4---4---4---4---4-----------2---2---2---2---2---2-----------0---0---0---0--|

D |----0-------0--------------------------------------------0---|
A#|-------0-------0------0---0---0---0-----0---0---0---0--------|
F |--0---0---0---0------0---0---0---0-----0---0---0---0---0-----|
D |-------------------------------------------------------------|
A |-----------------8/10--10---5---5---6/8---8---3---1---1------|
D#|-0---0---0---0-----------------------------------------------|

[Verse]
D |-------0-------0-------0-------0-------0---------------------------0-------0-------0-------0-------0-----|
A#|---0-------0-------0-------0-------0-------0---0---0---0---0---0-------0-------0-------0-------0-------0-|
F |--0---0---0---0---0---0---0---0---0---0---0---0---0---0---0---0---0---0---0---0---0---0---0---0---0---0--|
D |---------------------------------------------------------------------------------------------------------|
A |-1---1---1---1---1---1---1---1---1---1---0-----------1---3---5---5---5---5---5---5---5---5---5---5---5---|
D#|---------------------------------------------4---2-------------------------------------------------------|

D |------------------------0------0-------0-------0-------0---------------------------------|
A#|---0---0---0---0---0-------0-------0-------0-------0-------0---0---0---0---0---0---0---0-|
F |--0---0---0---0---0---0---0---0---0---0---0---0---0---0---0---0---0---0---0---0---0---0--|
D |-----------------------------------------------------------------------------------------|
A |-3---1---6---5---3---3---3---3---3---3---3---3---3---3---1---3---5---3---1-------0--1----|
D#|-----------------------------------------------------------------------------4-----------|

D |----0------0-------0-------0-------------------------------------0-|
A#|-------0-------0-------0-------0---0---0---0-----0---0---0---0-----|
F |--0---0---0---0---0---0---0---0---0---0---0-----0---0---0---0---0--|
D |-------------------------------------------------------------------|
A |-1---1---1---1---1---1---1---8---5---1---3---5h6---5---3---1---1---|
D#|-------------------------------------------------------------------|

[Chorus]
D |-------0-------0-------0---------------0--------0-------0----------0-------0-------0-------0-------0-----|
A#|---0-------0-------0-------0---0---0-------0-------0-------0---0-------0-------0-------0-------0-------0-|
F |--0---0---0---0---0---0---0---0---0---0---0---0---0---0---0---0---0---0---0---0---0---0---0---0---0---0--|
D |---------------------------------------------------------------------------------------------------------|
A |-------------------------3---5---------------------------3---5-------------------------------------------|
D#|-4---4---4---4---4---4-----------2---2---2---2---2---2-----------0---0---0---0---0---0---0---0---0---0---|

D |----0-------0-------0---------------0--------0-------0----------0-------0-------0--------------0------0-|
A#|-------0-------0-------0---0---0-------0-------0-------0---0-------0-------0-------0---0---0-------0----|
F |--0---0---0---0---0---0---0---0---0---0---0---0---0---0---0---0---0---0---0---0---0---0---0---0---0---0-|
D |--------------------------------------------------------------------------------------------------------|
A |-------------------------------------------------3---5---------------------------3---5------------------|
D#|-0---0---0---0---0---0---4---4---4---4---4---4-----------2---2---2---2---2---2-----------0---0---0---0--|

D |----0-------0--------------------------------------------0---|
A#|-------0-------0------0---0---0---0-----0---0---0---0--------|
F |--0---0---0---0------0---0---0---0-----0---0---0---0---0-----|
D |-------------------------------------------------------------|
A |-----------------8/10--10---5---5---6/8---8---3---1---1------|
D#|-0---0---0---0-----------------------------------------------|

D |-------0-------0-------0---------------0--------0-------0----------0-------0-------0-------0-------0-----|
A#|---0-------0-------0-------0---0---0-------0-------0-------0---0-------0-------0-------0-------0-------0-|
F |--0---0---0---0---0---0---0---0---0---0---0---0---0---0---0---0---0---0---0---0---0---0---0---0---0---0--|
D |---------------------------------------------------------------------------------------------------------|
A |-------------------------3---5---------------------------3---5-------------------------------------------|
D#|-4---4---4---4---4---4-----------2---2---2---2---2---2-----------0---0---0---0---0---0---0---0---0---0---|

D |----0-------0-------0---------------0--------0-------0----------0-------0-------0--------------0------0-|
A#|-------0-------0-------0---0---0-------0-------0-------0---0-------0-------0-------0---0---0-------0----|
F |--0---0---0---0---0---0---0---0---0---0---0---0---0---0---0---0---0---0---0---0---0---0---0---0---0---0-|
D |--------------------------------------------------------------------------------------------------------|
A |-------------------------------------------------3---5---------------------------3---5------------------|
D#|-0---0---0---0---0---0---4---4---4---4---4---4-----------2---2---2---2---2---2-----------0---0---0---0--|

D |----0-------0--------------------------------------------0---|
A#|-------0-------0------0---0---0---0-----0---0---0---0--------|
F |--0---0---0---0------0---0---0---0-----0---0---0---0---0-----|
D |-------------------------------------------------------------|
A |-----------------8/10--10---5---5---6/8---8---3---1---1------|
D#|-0---0---0---0-----------------------------------------------|

***********************************

| h   Hammer-on 
| /   Slide

***********************************
Suggest correction
Creating personal tab
Creating personal tab
You can edit any tab online and save it as your Personal.

You can edit, replace or remove any tab part or add personal notes – all changes will be seen only by you.

Personal tabs can be accessed anytime from any device, even offline.
Learn more »
Give kudos to tab author, rate the tab!
1 2 3 4 5
comments
print report bad tab
guest
You may want to rate the tab now too:
select rating
Wanna post a correction for this tab? Suggest correction