Oops, an error
Loading. Please wait.

Simple Life Bass Tab

400 views 1 this week
no commentswrite comment
1 2 3 4 5
3 more votes to show rating
add to favorites
launch autoscroll
font size
0
reset
guitar tuner
Autoscroll
slow
fast
+/-
esc
set tempo
stop
Help us to improve Ultimate-Guitar.com Take our survey!
×
Difficulty
novice
Intro-(Bass kicks in at 00:07)                                   
G|----------------------------------------------------------------|
D|----------------------------------------------------------------|
A|-3-3-3-3-3-3-3-1-1-1-1-1-1-1------------------------------------|
E|-----------------------------1-1-1-1-1-1-1-1-1-1-1-1-1-1--------|

G|----------------------------------------------------------------|
D|-------------------------------------------3-3-3-3-3-3-3--------|
A|-3-3-3-3-3-3-3-1-1-1-1-1-1-1------------------------------------|
E|-----------------------------1-1-1-1-1-1-1----------------------|


1Verse-(Rest until 00:30)
G|----------------------------------------------------------------|
D|-----------3----------------------------------------------------|
A|-3----1---------------------------------------------------------|
E|----------------------------------------------------------------|

Pre-Chorus
G|------------------------------------------------|
D|-----------------------------3333333------------|
A|------3355------3355-3333333--------------------|
E|-5555------3333---------------------------------|
G|------------------------------------------------|
D|------------------------------------------------|
A|------3355------3355----------------------------|
E|-5555------3333------66666666666666-------------|

Chorus
G|----------------------------------------------------------------|
D|----------------------------------------------------------------|
A|-3x14-1x14------------------------------------------------------|
E|-----------1-1-1-1-1-1/553333333--------------------------------|

G|----------------------------------------------------------------|
D|----------------------------------------------------------------|
A|-3x14-1x14----------------------3-------------------------------|
E|-----------1-1-1-1-1-1/553333333--------------------------------|


2Verse
G|----------------------------------------------------------------|
D|-----------3--------------3-------------------------------------|
A|-3----1---------3----1------------------------------------------|
E|----------------------------------------------------------------|

Pre-Chorus
Chorus

Bridge
G|----------------------------------------------------------------|
D|----------------------------------------------------------------|
A|--------------------------1x14-3---------1----------------------|
E|-5x7-3x7-0x7-1x7-5x7-3x7--------------------------1----4--------|

Chorus                                                           x3
G|----------------------------------------------------------------|
D|----------------------------------------------------------------|
A|-3x14-1x14------------------------------------------------------|
E|-----------1-1-1-1-1-1/553333333--------------------------------|

G|----------------------------------|
D|----------------------------------|
A|----------------------------------|
E|-5x7-0x7-1x7/3--------------------|

G|----------------------------------------------------------------|
D|----------------------------------------------------------------|
A|-3x14-1x14-----------------------3------------------------------|
E|-----------1-1-1-1-1-1/553333333--------------------------------|
Suggest correction
Give kudos to tab author, rate the tab!
1 2 3 4 5
comments
print report bad tab
guest
You may want to rate the tab now too:
select rating
Wanna post a correction for this tab? Suggest correction