Oops, an error
Loading. Please wait.

Time Spent Breathing Tab

360 views 1 this week
no commentswrite comment
1 2 3 4 5
please rate
add to favorites
launch autoscroll
font size
0
reset
how to read this tab
guitar tuner
Autoscroll
slow
fast
+/-
esc
set tempo
stop
Help us to improve Ultimate-Guitar.com Take our survey!
×
Author
Difficulty
Tuning
novice
D# G# C# F# A# D#
This is a very simple song. You can also play this in standard tuning, just change 
the frets accordingly.

Please share this/post elsewhere, just please give me credit.
Tabbed by: Philip Tebby. email: capn.jazz@hotmail.com


Artist: My Heart To Joy
Song: Time Spent Breathing
Album: Seasons In Verse (2009)
Tuning: Down Half-Step (EbAbDbGbBbEb)



Remember to slide between all the chords

eb- -----------------------------------------------------|
Bb- -----------------------------------------------------|
Gb- ---7---7---7---7---7---7---7---7---12---12---11---11-|
Db- -----------------------------------------------------|  x1
Ab- -5---5---5---5---5---5---5---5---10---10---10---10---|
Eb- -----------------------------------------------------|


eb- ---------------------------------------------------------------------|
Bb- ---------------------------------------------------------------------|
Gb- ---7---7---7---7---7---7---7---7---7---7---7---7---12---12---11---11-|  
Db- ---------------------------------------------------------------------|
Ab- -5---5---5---5---7---7---7---7---7---7---7---7---10---10---10---10---|
Eb- ---------------------------------------------------------------------|

Remeber on the third instance of the above notes to play:
(Listen to the song and you will know what I'm talking about)

eb- ---------------------|
Bb- ---------------------|
Gb- ---12---12-11---12---| 
Db- ---------------------|
Ab- -10---10-----10---10-|
Eb- ---------------------|


Then, after the drums build up, you strum the notes above as chords.

eb- --------------------------|
Bb- --------------------------|
Gb- --12-12-12-12-12-11-11-11-|  
Db- --------------------------|
Ab- --10-10-10-10-10-10-10-10-|
Eb- --------------------------|

eb- --------------------------------------------------|
Bb- --------------------------------------------------|
Gb- --7-7-7-7-7-7-7-7-7-7-7-7-7-7-7-7-7-7-7-7-7-7-7-7-|
Db- --------------------------------------------------|
Ab- --5-5-5-5-5-5-5-5-7-7-7-7-7-7-7-7-7-7-7-7-7-7-7-7-|
Eb- --------------------------------------------------|


Then, it slows down again.

eb- ---------------------------------------|
Bb- ---------------------------------------|
Gb- ---12---12---11---11---7---7---7---7---|  
Db- ---------------------------------------|
Ab- -10---10---10---10---5---5---5---5-----|
Eb- ---------------------------------------|


End on

eb- -------|
Bb- -------|
Gb- ---7---|  
Db- -------|
Ab- ---7---|
Eb- -------|


That's it!

If someone knows the tab to "Empty Homes" please let me know!

Check out My Heart To Joy:

http://www.topshelfrecords.com/tsr2/_pages/artist_my_heart_to_joy.php
http://myhearttojoy.bandcamp.com/
Suggest correction
What's this?
You can suggest a correction to this tab. Community and Mods will review your correction and vote to approve or reject it.
comments
We did not receive enough feedback on this tab! Please rate:
print report bad tab
1 2 3 4 5
guest
You may want to rate the tab now too:
select rating
Please do not post tabs as comments. Select "correction" instead!