Oops, an error
Loading. Please wait.

Aluminium Park Tab

2,813 views 6 this week
no commentswrite comment
1 2 3 4 5
excellent!
x 4
add to favorites
launch autoscroll
font size
0
reset
how to read this tab
guitar tuner
Tab Pro tools
  • play this tab
  • loop segment
  • change instrument
  • show fretboard
  • metronome
Autoscroll
slow
fast
+/-
esc
set tempo
stop
Contributor
Difficulty
novice
-----------------------------------------------------------------------------

                             Aluminium Park - My Morning Jacket
-----------------------------------------------------------------------------

Tabbed by: Nindy
Email:

Tuning: Standard

Great song, great band.

Intro/Verse 1
e|---------------------------------------------------------------------------|
B|---------------------------------------------------------------------------|
G|---------------------------------------------------------------------------|
D|---------------------------------------------------------------------------|
A|---1--1--1111--1-11--111---------------------------------------------------|
E|------------------------1-1-3-----Repeat-----------------------------------|

Pre Chorus (00:45)
e|---------------------------------------------------------------------------|
B|---------------------------------------------------------------------------|
G|---8-8----7-7----5-5----3-3-3----------------------------------------------|
D|---8-8----7-7----5-5----3-3-3----------------------------------------------|
A|---6-6----5-5----3-3----1-1-1----------------------------------------------|
E|---------------------------------------------------------------------------|

Chorus (00:50)
e|---------------------------------------------------------------------------|
B|---------------------------------------------------------------------------|
G|---3-3-3-5-7-8-8-8-8-8-x-10-10-10-10-10-10-10-10-10-10---------------------|
D|---3-3-3-5-7-8-8-8-8-8-x-10-10-10-10-10-10-10-10-10-10---------------------|
A|---1-1-1-3-5-6-6-6-6-6-x-8--8--8--8--8--8--8--8--8--8----------------------|
E|---------------------------------------------------------------------------|

Verse (1:12)
e|---------------------------------------------------------------------------|
B|---------------------------------------------------------------------------|
G|---8--8--8-8-8--10-10-10-10-10-10--1-1-1-1-x-------------------------------|
D|---8--8--8-8-8--10-10-10-10-10-10--1-1-1-1-x--5-5-5-5-5-5------------------|
A|---6--6--6-6-6--8--8--8--8--8--8---3-3-3-3-x--5-5-5-5-5-5------------------|
E|----------------------------------------------3-3-3-3-3-3------------------|

INTRO with Solo played over.


Solo (1:27)
e|---------------------------------------------------------------------------|
B|---------------------------------------------------------------------------|
G|---------------------------------------------------------------------------|
D|---10b12-10b12r10-8--10b12------10b12r10-8--8~8/-------10b12---------------|
A|-------------------10---------------------10-------------------------------|
E|---------------------------------------------------------------------------|


e|---------------------------------------------------------------------------|
B|---------------------------------------------------------------------------|
G|---8-8-8-10----------------------------------------------------------------|
D|------------10b12r10-8h10-----10b12-10b12r10-8--8--------------------------|
A|----------------------------------------------10---------------------------|
E|---------------------------------------------------------------------------|

    Then this starts at (1:43). Let chords ring. 
e|---------------------------------------------------------------------------|
B|---------------------------------------------------------------------------|
G|---------------------------------------------------------------------------|
D|---3------------3------------3------------3--------------------------------|
A|---3------------3------------3------------3--------------------------------|
E|---1------------1------------1------------1--------------------------------|

e|---------------------------------------------------------------------------|
B|---------------------------------------------------------------------------|
G|---3---------33------------------------------------------------------------|
D|---3---------33-333-5------------------------------------------------------|
A|---1---------11-333-5------------------------------------------------------|
E|----------------111-3------------------------------------------------------|

Pre Chorus at (2:13)
Chorus at     (2:17)
Verse at      (2:40)

Then this, with solo played over at (3:05)     
e|---------------------------------------------------------------------------|
B|---------------------------------------------------------------------------|
G|---3---------33------------------------------------------------------------|
D|---3---------33-333-5------------------------------------------------------|
A|---1---------11-333-5------------------------------------------------------|
E|----------------111-3---pretty much repeats until the end------------------|


************************************

| /   slide up
| \   slide down
| h   hammer-on
| p   pull-off
| ~   vibrato
| +   harmonic
| x   Mute note
| b   Bend
| pb  Pre-bend
| br  Bend release
| pbr Pre-bend release
| brb Bend release bend

************************************
comments
print report bad tab
I want to post or [tab]
guest
You may want to rate the tab now too:
select rating
Please do not post tabs as comments. Select "correction" instead!