Oops, an error
Loading. Please wait.

Get The Point tab

1,021 views 18 this week
no commentswrite comment
1 2 3 4 5
2 more votes to show rating
add to favorites
×
Save as Personal and add changes to this tab that will be seen only by you. Learn more ›
×
You can save this tab as Personal to edit and correct it or add notes. All changes will be seen only by you. Learn more »
launch autoscroll
font size
0
reset
how to read this tab
guitar tuner
edit
Autoscroll
slow
fast
+/-
esc
set tempo
stop
My Morning Jacket
Get The Point
The Waterfall

Standard Tuning
Capo on 1st Fret

Tabbed up until the whole band comes in since the guitar
pretty much repeats the same way after that point.

Intro   
|--5---5-7p5-----5---3---3-5p3----3--2---2s--9----9---7----7---3---3----|
|----7--------5h7------3-------3h5-----3-------10--------8-------3------|
|---6-6--------------3--3--3----------2------9---9-------------3--3-----|
|--0----0----0----0---0---0---0----0-0-----0--0----0--0-0-0--0--0---0---|
|-----------------------------------------------------------------------|
|-----------------------------------------------------------------------|

|--2---2----2---2----2---2----2---2-------------------------------------|
|----3--------3--------3--------3---------------------------------------|
|---2---2----2---2----2---2----2---2------------------------------------|
|--0--0-----0--0-----0--0-----0--0--------------------------------------|
|-----------------------------------------------------------------------|
|-----------------------------------------------------------------------|

   D                         Em       A         D       
   Well we talked...         Needle...
   And then I realized...    Day dreaming...
|--2-2--2--2--2---2--2--2--0----0---0----0---------2---2----2---2-------|
|---3--3--3--3---0--0--0--0---0---0---h2---2-p0------3--------3---------|
|-------------------------------------------------2-2-2----2-2-2--------|
|--0--0--0--0---0--0--0--0-----2-2-2----2-2-2---0--------0--------------|
|-------------------------------------0-------------------------(repeat)|
|----------------------------0------------------------------------------|

   D                         D7             G
   And now it's done...                     Seemed to be there...
|--2-2--2--2--2---2--2--2--2---2--2--2--2------3---3---3---3------------|
|---3--3--3--3---0--0--0--0---1--1--1--1---------0-------0--------------|
|---------------------------------------------0-0-0---0-0-0-------------|
|--0--0--0--0---0--0--0--0---0--0--0--0---------------------------------|
|-----------------------------------------------------------------------|
|-------------------------------------------3-------3-------------------|


   Em       A         Em       A         Em      A     
   But there's only so many....
|-----0---0----0---------0---0----0---------0---0----0------------------|
|---0---0---h2---2-p0--0---0---h2---2-p0--0---0---h2---2-p0-------------|
|-----------------------------------------------------------------------|
|----2-2-2----2-2-2-----2-2-2----2-2-2-----2-2-2----2-2-2---------------|
|-----------0-----------------0------------------0----------------------|
|--0------------------0------------------0------------------------------|

   D                  Bm
   This  world  and   beyond...
|-----2---2----2---2-----2----------------------------------------------|
|-------3--------3---------3--------------------------------------------|
|----2-2-2----2-2-2-----4-4-4-4-4-4-4-----------------------------------|
|--0--------0-----------------------------------------------------------|
|---------------------2-------------------------------------------------|
|-----------------------------------------------------------------------|

   Em       A          D         Bm
   Get the point...
|-----0---0----0----------2---2-----2---2-------------------------------|
|---0---0---h2---2-p0-------3---------3---------------------------------|
|------------------------2-2-2-----4-4-4------------Repeat 2x-----------|
|----2-2-2----2-2-2----0---------------------(last repeat ends on D)----|
|-----------0--------------------2--------------------------------------|
|--0--------------------------------------------------------------------|


Intro reprise as band comes in

|--5---5-7p5-----5---3---3-5p3----2---2----2---2----2---2----2---2------|
|----7--------5h7------3------------3--------3--------3--------3--------|
|---6-6--------------3--3--3-------2---2----2---2----2---2----2---2-----|
|--0----0----0----0---0---0---0---0--0-----0--0-----0--0-----0--0-------|
|-----------------------------------------------------------------------|
|-----------------------------------------------------------------------|

Rad1030

            
            
Suggest correction
Creating personal tab
Creating personal tab
You can edit any tab online and save it as your Personal.

You can edit, replace or remove any tab part or add personal notes – all changes will be seen only by you.

Personal tabs can be accessed anytime from any device, even offline.
Learn more »
Give kudos to tab author, rate the tab!
1 2 3 4 5
comments
print report bad tab
guest
You may want to rate the tab now too:
select rating
Wanna post a correction for this tab? Suggest correction