Oops, an error
Loading. Please wait.

Off The Record Tab

version 1
version 1

Whole song

31,236 views 18 this week
no commentswrite comment
1 2 3 4 5
accurate
x 8
add to favorites
launch autoscroll
font size
0
reset
how to read this tab
guitar tuner
Tab Pro tools
  • play this tab
  • loop segment
  • change instrument
  • show fretboard
  • metronome
×
Best way to learn
"Off The Record"
Autoscroll
slow
fast
+/-
esc
set tempo
stop
Contributor
Difficulty
intermediate
My Morning Jacket
Off the Record
Z

Intro
(Standard Tuning)

e---------------9---9---9------------|---------------4--4--4------------|
B--------------—10--10--10-----------|---------------6--6--6------------|
G---------------11--11--11-----------|---------------6--6--6------------|
D----------6-4--11--11--11-----------|---------------6--6--6------------|
A--4-4-4-7------9---9---9--(let ring)|--4-4-4-7-9-4--4--4--4—(let ring)-|
E------------------------------------|----------------------------------|

e---------------9---9---9------------|---------------4--4--4--4---------------------|
B--------------—10--10--10-----------|---------------6--6--6--6---------------------|
G---------------11--11--11-----------|---------------6--6--6--6---------------------|
D----------6-4--11--11--11-----------|----------4-6--6--6--6--6---------------------|
A--4-4-4-7------9---9---9—(let ring)-|--4-4-4-7------4--4--4--4—(continues as verse)|
E------------------------------------|----------------------------------------------|

Verse

C#                                               F# (9th Fret-A String)
SORRY BOUT THE THINGS THAT I HAD TO SAY AND I'LL MAKE IT UP TO YOU 
      G# (11th Fret-A String)  C#
RIGHT NOW AT THE PENNY ARCADE.
C#                                      F#                G#
IN AN OPEN CAR OR WHEREVER YOU ARE PUSH YOURSELF TOO HARD AND IT MIGHT 
        C#
GET HOT.

Pre-Chorus

              D#m            Fm (8th Fret-A String)
WELL I REALLY DON'T NEED THE CONFUSION
             D#m              Fm
AND YOU KNOW I JUST AIN'T THE TYPE
           D#m               Fm
TO GET ALL WRAPPED UP IN THE ILLUSION
        D#m              Fm
OF DOIN SOMETHING THAT I KNOW AIN'T RIGHT - RIGHT RIGHT???

Chorus

       C#
YOU'VE GOT TO WANT TO RE-ARRANGE 
            F#              G#
AND KEEP IT OFF THE RECORD. OFF THE RECORD.
       C#
YOU'VE GOT TO KNOW THAT WE WILL CHANGE 
            F#              G#
AND KEEP IT OFF THE RECORD. OFF THE RECORD.

(Keyboard Solo)

C# F# G#
C# F# G#
Verse II

C#
IN A CROWDED ROOM NEAR THE BOX OF BOOM
      F#               G#              C#
TO AN ARTIFICIAL TUNE, I SEE YOU SWOON.
C#
WELL YOU KNEW ALL THIS WOULD TURN TO MIST 
        G#                   G#                   C#
IF YOUR IDEA WASN'T KISSED - WHY'RE YOU SO PISSED?

Pre-Chorus

              D#m            Fm
WELL I REALLY DON'T NEED THE CONFUSION
             D#m              Fm
AND YOU KNOW I JUST AIN'T THE TYPE
           D#m               Fm
TO GET ALL WRAPPED UP IN THE ILLUSION
        D#m              Fm
OF DOIN SOMETHING THAT I KNOW AIN'T RIGHT - RIGHT RIGHT???
Fm             Fm             Fm
RIGHT RIGHT??? RIGHT RIGHT??? RIGHT RIGHT???

Chorus

       C#
YOU'VE GOT TO WANT TO RE-ARRANGE 
            F#              G#
AND KEEP IT OFF THE RECORD. OFF THE RECORD.
       C#
YOU'VE GOT TO KNOW THAT WE WILL CHANGE 
            F#              G#
AND KEEP IT OFF THE RECORD. OFF THE RECORD.

       C#
YOU'VE GOT TO WANT TO RE-ARRANGE 
            F#              G#
AND KEEP IT OFF THE RECORD. OFF THE RECORD.
       C#
YOU'VE GOT TO KNOW THAT WE WILL CHANGE 
            F#              G#
AND KEEP IT OFF THE RECORD. OFF THE RECORD. C’mon!

e---------------9---9---9------------|---------------4--4--4------------|
B--------------—10--10--10-----------|---------------6--6--6------------|
G---------------11--11--11-----------|---------------6--6--6------------|
D----------6-4--11--11--11-----------|---------------6--6--6------------|
A--4-4-4-7------9---9---9--(let ring)|--4-4-4-7-9-4--4--4--4—(let ring)-|
E------------------------------------|----------------------------------|

e---------------9---9---9------------|---------------4--4--4--4---------------------|
B--------------—10--10--10-----------|---------------6--6--6--6---------------------|
G---------------11--11--11-----------|---------------6--6--6--6---------------------|
D----------6-4--11--11--11-----------|---------------6--6--6--6---------------------|
A--4-4-4-7------9---9---9—(let ring)-|--4-4-4-7-4-4--4--4--4--4—(Played six times)--|
E------------------------------------|----------------------------------------------|

The song finishes with organs, keyboards, reverb-drenched guitar bends, backwards played
vocals, a synth-sounding beat, and a bass lick similar to the final riff of the song.
comments
print report bad tab
I want to post or [tab]
guest
You may want to rate the tab now too:
select rating
Please do not post tabs as comments. Select "correction" instead!