Oops, an error
Loading. Please wait.

One Big Holiday Tab

version 1
version 1

Whole song

Interactive

79,172 views 51 this week
9 commentsread comments
1 2 3 4 5
excellent!
x 20
add to favorites
launch autoscroll
font size
0
reset
how to read this tab
guitar tuner
Autoscroll
slow
fast
+/-
esc
set tempo
stop
Help us to improve Ultimate-Guitar.com Take our survey!
×
Difficulty
intermediate
CHORDS USED

F maj. - 133211
G maj. - 355433
A min. – 577555
C maj. – X35553
F maj. – X8.10.10.10.8
E min. – X79987
D min. – X57765
E min. – 022000
G maj. 320003

 Intro –( 0:16 – 0:47)

e------8------8------8------8----10------10------10------10------10----12-|
B-8h10---8h10---8h10---8h10---10----8h10----8h10----8h10----8h10----10----|
G-------------------------------------------------------------------------|
D-------------------------------------------------------------------------|
A-------------------------------------------------------------------------|
E-------------------------------------------------------------------------|

e------12------12------12------12------12------12------12------12---------|
B-8h10----8h10----8h10----8h10----8h10----8h10----8h10----8h10------------|
G-------------------------------------------------------------------------|
D-------------------------------------------------------------------------|
A-------------------------------------------------------------------------|
E-------------------------------------------------------------------------|

F maj.                      G maj.                     A min.

Mini solo 1
e--------5-5-----------------7-7------------------------------------------|
B---5b6------6r5---5-----7b8------8r7---7----8b10-10-8b10-----------------|
G----------------7--------------------9-------------------7-9-9-9-7-------|
D-------------------------------------------------------------------10p7--|
A-------------------------------------------------------------------------|
E-------------------------------------------------------------------------|

e--------5-5-----------------7-7------------------------------------------|
B---5b6------6r5---5-----7b8------8r7---7----8b10-10-8b10-----------------|
G----------------7--------------------9-------------------7-9-9-9-7-------|
D-------------------------------------------------------------------10p7--|
A-------------------------------------------------------------------------|
E-------------------------------------------------------------------------|

Mini solo 2
e-------------------------------------------------------------------------|
B---5---5-5-5-5---5-------------------------------------------------------|
G---5h7-7-7-7-5---5-----X7------------------------------------------------|
D---------------7---------------------------------------------------------|
A-------------------------------------------------------------------------|
E-------------------------------------------------------------------------|

VERSE
C maj.            F maj.    E min.		   D min.
wakin up feelin     good and limber.  when the telephone it ring.       
e-------------------------------------------------------------------------|
B------------8~-----------------------------------------------------------|
G----5-7-5-7--------------------------------------------------------------|

C maj			F maj
it was a bad man from California  
Emin			Dmin
tellin of a stone he’d bring  
Emin           Dmin       E min
 
 e---0----0--0-0-0-0---
 b---3-/--5--5-5-5-5---	D min.    			G maj.

 CHORUS X4

e--------------------------------------------------------------------------|
B----10----10---------12----12---------------------------------------------|
G------10----10--10-----12----12--12---------------------------------------|
D--10----10----10---12----12----12-----12-10--12-10--10----12-10--12-10—10-|
A------------------------------------12-----12-----12----12-----12-----12--|
E--------------------------------------------------------------------------|

Repeat verse

Repeat mini solo 1


SOLO BABY!!

e-------------------------------------------------------------------------|
B-------------------------------------------------------------------------|
G---------5-7-7b9-7b9-7b9r7-5-5h7p5\2-5-2-2-0-0-2-5-5-5-5b7r5-2-----------|
D------5-7-----------------------------------2----------------------------|
A-5h7p5-------------------------------------------------------------------|
E-------------------------------------------------------------------------|

					(These hammer-ons happen 11 times)
e--------------------------------5p0-3p0—---------------------------------|
B--5-5-5-5/8-8-8-8\5-5-5-5-5----5~~~~~~~----------------------------------|
G--2-2-2-2/5-5-5-5\2-2-2-2-2----------------------------------------------|
D-------------------------------------------------------------------------|
A-------------------------------------------------------------------------|
E-------------------------------------------------------------------------|

					    (X6 or X7)
e—3/5-8-10b12-12-12r10-8----------8h10p8----------------------------------|
B-----------------------10-8-8h10-------10p8------------------------------|
G-------------------------------------------------------------------------|
D-------------------------------------------------------------------------|
A-------------------------------------------------------------------------|
E-------------------------------------------------------------------------|

e-------------------------------------------------------------------------|
B—10-8\5-5----5-----------------------------------------------------------|
G----------7b9-9r7-5-2~~~~------------------------------------------------|
D-------------------------------------------------------------------------|
A-------------------------------------------------------------------------|
E-------------------------------------------------------------------------|

					Repeat Intro X1   then… play this 3X

e---------------------12-8b10---------------------------------------------|
B-10-10-10-10-10-10-10----------------------------------------------------|
G-------------------------------------------------------------------------|
D-------------------------------------------------------------------------|
A-------------------------------------------------------------------------|
E-------------------------------------------------------------------------|

e-------------12/15-15-15-15-15-15-----15----15----15----15---------------|
B---8h10p8-8----------------------15h17—15h17—15h17—15h17-----------------|
G---------9---------------------------------------------------------------|
D-------------------------------------------------------------------------|
A-------------------------------------------------------------------------|
E-------------------------------------------------------------------------|

e------17-----------20-17-15-17-17-17-15----------------------------------|
B-15h17—--(10 times)--------------------17-15-15-15-13-15-13--13-15-13-15-|
G-----------------------------------------------------------14------------|
D-------------------------------------------------------------------------|
A-------------------------------------------------------------------------|
E-------------------------------------------------------------------------|

e------15-----------------------------------------------------------------|
B—15b17—17r15-13----------------------------------------------------------|
G---------------14--------------------------------------------------------|
D-------------------------------------------------------------------------|
A-------------------------------------------------------------------------|
E-------------------------------------------------------------------------|
		Repeat the intro untill fade out and end with

e---12--------------------------------------------------------------------|
B---12--------------------------------------------------------------------|
G---12--------------------------------------------------------------------|
D-------------------------------------------------------------------------|
A-------------------------------------------------------------------------|
E-------------------------------------------------------------------------|



PEACE OUT!
Suggest correction new What's this?
You can suggest a correction to this tab. Community and Mods will review your correction and vote to approve or reject it.
comments
print report bad tab
9 comments total. Showing first comments.
0 reply
TheTroy 1,341 wrote on August 12 2008, 10:36 am

hey people looking at this tab. i am the person who posted this. yes i know it says unregistered but i wasnt registered at the time i posted it. but now i am and i have other tabs too.

+1 reply
mazurek 52 wrote on December 23 2008, 04:27 pm

sounds good to me. 5 stars. A1

+1 reply
guitarsolan 199 wrote on March 19 2009, 03:44 pm

pretty good

guest
You may want to rate the tab now too:
select rating
Please do not post tabs as comments. Select "correction" instead!