Oops, an error
Loading. Please wait.

Tropics tab

version 1
version 1

Whole song

2,870 views 12 this week
no commentswrite comment
1 2 3 4 5
x 5
add to favorites
×
Save as Personal and add changes to this tab that will be seen only by you. Learn more ›
×
You can save this tab as Personal to edit and correct it or add notes. All changes will be seen only by you. Learn more »
launch autoscroll
font size
0
reset
how to read this tab
guitar tuner
edit
Autoscroll
slow
fast
+/-
esc
set tempo
stop
-------------------------------------------------------------------------------
                            Tropics - My Morning Jacket
-------------------------------------------------------------------------------
Album: The Waterfall (2015)
Tabbed by: guitarsolan

Tuning: EADGBe 

CAPO ON 5th FRET

intro:

e|-----------2------------1--------------------------------------------------|
B|-2h4p2p0------2h4p2p0------2h4p2p0---4----2-2--2-4-2-0---------------------|
G|---------1------------1------------1---------------------------------------|
D|---------------------------------------------------------------------------|
A|---------------------------------------------------------------------------|
E|---------------------------------------------------------------------------|

e|-----------2------------1-----------------0-0--0-2-------------------------|
B|-2h4p2p0------2h4p2p0------2h4p2p0---4-------------2-4-4-------------------|
G|---------1------------1------------1---------------------------------------|
D|---------------------------------------------------------------------------|
A|---------------------------------------------------------------------------|
E|---------------------------------------------------------------------------|

e|--7-----7-----7-----7---------6-----6------6-----6-------------------------|
B|----4-----4-----4---------------4-----4------4-----------------------------|
G|------4-----4-----4---------------4-----4------4---------------------------|
D|---------------------------------------------------------------------------|
A|---------------------------------------------------------------------------|
E|---------------------------------------------------------------------------|

e|--2-----2-----2-----2---------0-----0-----0--------2-------2---------------|
B|----0-----0-----0---------------0-----0-----0--------2-4-4-----------------|
G|------1-----1-----1---------------1-----1-----1----------------------------|
D|---------------------------------------------------------------------------|
A|---------------------------------------------------------------------------|
E|---------------------------------------------------------------------------|

e|-----------2------------1--------------------------------------------------|
B|-2h4p2p0------2h4p2p0------2h4p2p0---4----2-2--2-4-2-0---------------------|
G|---------1------------1------------1---------------------------------------|
D|---------------------------------------------------------------------------|
A|---------------------------------------------------------------------------|
E|---------------------------------------------------------------------------|

e|-----------2------------1-----------------0-0--0-2-------------------------|
B|-2h4p2p0------2h4p2p0------2h4p2p0---4-------------------------------------|
G|---------1------------1------------1---------------------------------------|
D|---------------------------------------------------------------------------|
A|---------------------------------------------------------------------------|
E|---------------------------------------------------------------------------|

e|-----------2------------1--------------------------------------------------|
B|-2h4p2p0------2h4p2p0------2h4p2p0---4-----2h4p2p0---2h4p2p0---2h4p2p0-----|
G|---------1------------1------------1---------------1---------1-------------|
D|---------------------------------------------------------------------------|
A|---------------------------------------------------------------------------|
E|---------------------------------------------------------------------------|

e|-----------2------------1--------------------------------------------------|
B|-2h4p2p0------2h4p2p0------2h4p2p0---4----2-2--2-4-2-0---------------------|
G|---------1------------1------------1---------------------------------------|
D|---------------------------------------------------------------------------|
A|---------------------------------------------------------------------------|
E|---------------------------------------------------------------------------|

e|--------------------------2------------------------------------------------|
B|--2-2-2--0-2-2--2-0-2-4-4--------------------------------------------------|
G|---------------------------------------------------------------------------|
D|---------------------------------------------------------------------------|
A|---------------------------------------------------------------------------|
E|---------------------------------------------------------------------------|

verse 1:

e|------2-------1----------------------------2-------1--------0-0--0-2-------|
B|--2-4-----2-4----2-4-4---2-2--2-4-2-0--2-4-----2-4----2-4-4----------------|
G|---------------------------------------------------------------------------|
D|---------------------------------------------------------------------------|
A|---------------------------------------------------------------------------|
E|---------------------------------------------------------------------------|

e|------2-------1------------------------------------------------------------|
B|--2-4-----2-4----2-4-4---2-2--2-4-2-0--2-2-2--0-2-2-2-4-2-0----------------|
G|---------------------------------------------------------------------------|
D|---------------------------------------------------------------------------|
A|---------------------------------------------------------------------------|
E|---------------------------------------------------------------------------|

e|------2-------1----------------------------2-------1--------0-0--0-2-------|
B|--2-4-----2-4----2-4-4---2-2--2-4-2-0--2-4-----2-4----2-4-4----------------|
G|---------------------------------------------------------------------------|
D|---------------------------------------------------------------------------|
A|---------------------------------------------------------------------------|
E|---------------------------------------------------------------------------|

e|------2-------1-----------------------------------------------2------------|
B|--2-4-----2-4----2-4-4---2-2--2-4-2-0--2-2-2--0-2-2-2-0-2-4-4--------------|
G|---------------------------------------------------------------------------|
D|---------------------------------------------------------------------------|
A|---------------------------------------------------------------------------|
E|---------------------------------------------------------------------------|

e|------2-------1----------------------------2-------1--------0-0--0-2-------|
B|--2-4-----2-4----2-4-4---2-2--2-4-2-0--2-4-----2-4----2-4-4----------------|
G|---------------------------------------------------------------------------|
D|---------------------------------------------------------------------------|
A|---------------------------------------------------------------------------|
E|---------------------------------------------------------------------------|

e|------2-------1------------------------------------------------------------|
B|--2-4-----2-4----2-4-4---2-2--2-4-2-0--2-2-2--0-2-2-2-0-2-4-4--------------|
G|---------------------------------------------------------------------------|
D|---------------------------------------------------------------------------|
A|---------------------------------------------------------------------------|
E|---------------------------------------------------------------------------|

e|-----------2------------1--------------------------------------------------|
B|-2h4p2p0------2h4p2p0------2h4p2p0---4-----2h4p2p0---2h4p2p0---2h4p2p0-----|
G|---------1------------1------------1---------------1---------1-------------|
D|---------------------------------------------------------------------------|
A|---------------------------------------------------------------------------|
E|---------------------------------------------------------------------------|

e|-----------2------------1--------------------------------------------------|
B|-2h4p2p0------2h4p2p0------2h4p2p0---4----2-2--2-4-2-0---------------------|
G|---------1------------1------------1---------------------------------------|
D|---------------------------------------------------------------------------|
A|---------------------------------------------------------------------------|
E|---------------------------------------------------------------------------|

e|--------------------------2------------------------------------------------|
B|--2-2-2--0-2-2--2-0-2-4-4--------------------------------------------------|
G|---------------------------------------------------------------------------|
D|---------------------------------------------------------------------------|
A|---------------------------------------------------------------------------|
E|---------------------------------------------------------------------------|

e|------2------2------4-----4------2-----2-----------------------------------|
B|--2-4----2-4----2-4---2-4----2-4---2-4----2-4-4----------------------------|
G|---------------------------------------------------------------------------|
D|---------------------------------------------------------------------------|
A|---------------------------------------------------------------------------|
E|---------------------------------------------------------------------------|

e|------2------2------4-----4------2-----2-----------------------------------|
B|--2-4----2-4----2-4---2-4----2-4---2-4----2-4-4----------------------------|
G|---------------------------------------------------------------------------|
D|---------------------------------------------------------------------------|
A|---------------------------------------------------------------------------|
E|---------------------------------------------------------------------------|

solo:

e|--------12h14-14b16----------12h14-14b16----------12h14-14b16--------------|
B|---------------------------------------------------------------------------|
G|---------------------------------------------------------------------------|
D|---------------------------------------------------------------------------|
A|---------------------------------------------------------------------------|
E|--2b4r2----------------2b4r2----------------2b4r2--------------------------|

e|--12-11-9-7/9--------------------------------------------------------------|
B|---------------------------------------------------------------------------|
G|---------------------------------------------------------------------------|
D|---------------------------------------------------------------------------|
A|---------------------------------------------------------------------------|
E|---------------------------------------------------------------------------|

e|--------12h14-14b16----------12h14-14b16----------12h14-14b16--------------|
B|---------------------------------------------------------------------------|
G|---------------------------------------------------------------------------|
D|---------------------------------------------------------------------------|
A|---------------------------------------------------------------------------|
E|--2b4r2----------------2b4r2----------------2b4r2--------------------------|

e|--12-11-9-7/9--------------------------------------------------------------|
B|---------------------------------------------------------------------------|
G|---------------------------------------------------------------------------|
D|---------------------------------------------------------------------------|
A|---------------------------------------------------------------------------|
E|---------------------------------------------------------------------------|

e|--------12h14-14b16----------12h14-14b16----------12h14-14b16--------------|
B|---------------------------------------------------------------------------|
G|---------------------------------------------------------------------------|
D|---------------------------------------------------------------------------|
A|---------------------------------------------------------------------------|
E|--2b4r2----------------2b4r2----------------2b4r2--------------------------|

e|--12-11-9-7/9--------------------------------------------------------------|
B|---------------------------------------------------------------------------|
G|---------------------------------------------------------------------------|
D|---------------------------------------------------------------------------|
A|---------------------------------------------------------------------------|
E|---------------------------------------------------------------------------|

verse 2:

e|------2-------1----------------------------2-------1--------0-0--0-2-------|
B|--2-4-----2-4----2-4-4---2-2--2-4-2-0--2-4-----2-4----2-4-4----------------|
G|---------------------------------------------------------------------------|
D|---------------------------------------------------------------------------|
A|---------------------------------------------------------------------------|
E|---------------------------------------------------------------------------|

e|------2-------1------------------------------------------------------------|
B|--2-4-----2-4----2-4-4---2-2--2-4-2-0--2-2-2--0-2-2-2-0-2-4-4--------------|
G|---------------------------------------------------------------------------|
D|---------------------------------------------------------------------------|
A|---------------------------------------------------------------------------|
E|---------------------------------------------------------------------------|

outro:

e|--7-----7-----7-----7---------6-----6------6-----6-------------------------|
B|----4-----4-----4---------------4-----4------4-----------------------------|
G|------4-----4-----4---------------4-----4------4---------------------------|
D|---------------------------------------------------------------------------|
A|---------------------------------------------------------------------------|
E|---------------------------------------------------------------------------|

e|--2-----2-----2-----2---------0-----0-----0--------2-----------------------|
B|----0-----0-----0---------------0-----0-----0--------2-4-4-----------------|
G|------1-----1-----1---------------1-----1-----1----------------------------|
D|---------------------------------------------------------------------------|
A|---------------------------------------------------------------------------|
E|---------------------------------------------------------------------------|

END

enjoy!



************************************

| /   slide up
| \   slide down
| h   hammer-on
| p   pull-off
| ~   vibrato
| +   harmonic
| x   Mute note
| b   Bend
| pb  Pre-bend
| br  Bend release
| pbr Pre-bend release
| brb Bend release bend

************************************

            
            
Suggest correction
Creating personal tab
Creating personal tab
You can edit any tab online and save it as your Personal.

You can edit, replace or remove any tab part or add personal notes – all changes will be seen only by you.

Personal tabs can be accessed anytime from any device, even offline.
Learn more »
comments
print report bad tab
guest
You may want to rate the tab now too:
select rating
Wanna post a correction for this tab? Suggest correction