Oops, an error
Loading. Please wait.

Her Eyes On Tab

84 views 1 this week
no commentswrite comment
1 2 3 4 5
please rate
add to favorites
launch autoscroll
font size
0
reset
how to read this tab
guitar tuner
Tab Pro tools
  • play this tab
  • loop segment
  • change instrument
  • show fretboard
  • metronome
Autoscroll
slow
fast
+/-
esc
set tempo
stop
Opening section:-


e----x-----------5--5--5--5--------------5--5--5--5--------------------------------------|
b----x-----------7--7--7--7--------------7--7--7--7--------------------------------------|
g----x-----------7--7--7--7--------------7--7--7--7---------------7-7---------------7-7--|
d----0--0--0--0--7--7--7--7--0--0--0--0--7--7--7--7--4--4--4--4---7-7--4--4--4--4---7-7--|      x2, with phaser effect
a----0--0--0--0--------------0--0--0--0--------------4--4--4--4---5-5--4--4--4--4---4-4--|
d----0--0--0--0--------------0--0--0--0--------------4--4--4--4--------4--4--4--4--------|

Verse:-


e----9---|
b----10--|
g----9---|    This F# minor seventh chord oi fingrer-picked in a lostprophety
d----11--|    kind of way, adding notes where ever you choose to complete the
a----9---|    harmonies. This chord is followed by.........
d--------|


e----5---|
b----7---|
g----6---|    This D major dominant chord. The same thing goes with this
d----7---|    one- =just add your free little finger when you wanna.
a----5---|
d--------|


Pre-chorus:-

e----------|
b----------|
g----------|  x2   Let this chord ring and count to 8
d----0-----|       (it works in my head, OK?!)
a----0-----|
d----0-----|


Chorus:-


e---------------------------------------------------|
b---------------------------------------------------|
g---------------------------------------------------|
d----4--4--4-4/5/5/0--0-----11-11-11-11-11/9---9/11-|
a----4--4--4-4/5-5/0--0-----12-12-12-12-12/11-11/12-|
d----4--4--4-4/5-5/0--0-----------------------------|

This ain't finished but my sister needs the phone now........
comments
We did not receive enough feedback on this tab! Please rate:
print report bad tab
1 2 3 4 5
I want to post or [tab]
guest
You may want to rate the tab now too:
select rating
Please do not post tabs as comments. Select "correction" instead!