Oops, an error
Loading. Please wait.

To Live And Die In The Airport Lounge Tab

281 views 1 this week
1 commentread comment
1 2 3 4 5
not so good
x 1
add to favorites
launch autoscroll
font size
0
reset
how to read this tab
guitar tuner
Tab Pro tools
  • play this tab
  • loop segment
  • change instrument
  • show fretboard
  • metronome
Autoscroll
slow
fast
+/-
esc
set tempo
stop
Contributor
Difficulty
intermediate
Pattern 1:
e|--------------------------------------|
B|--------------------------------------|
G|--------------------------------------|
D|---10--10--10---10----10--10--10---10-|
A|--8---8---8---8------7---7---7---7----|
E|--------------------------------------|

E|--------------------------------------|
B|--------------------------------------|
G|--------------------------------------|
D|---8---8---8---8----8---8---8---8-----|
A|--6---6---6--6-----5---5---5--5-------|
E|--------------------------------------|


~~~~~~~~~~~~~~~~~~~~~~~~~~~~~~~~~~~~~~~~~~~~~~~~


Pattern 2:
e|----------------------------------------|
B|----------------------------------------|
G|----------------------------------------|
D|---10--10--10-12-10----10--10--10-12-10-|
A|--8---8---8-----------7---7---7---------|
E|----------------------------------------|

E|----------------------------------------|
B|----------------------------------------|
G|----------------------------------------|
D|---8---8---8-10-8----8---8---8-10-8-----|
A|--6---6---6---------5---5---5-----------|
E|----------------------------------------|


comments
We did not receive enough feedback on this tab! Please rate:
print report bad tab
1 2 3 4 5
1 comment total.
0 reply
themee wrote on October 15 2009, 09:10 pm

Pattern 1:
e|---------------------------------------------------|
B|---------------------------------------------------|
G|----12--12--12--12----12-----12--12--12--12----12--|
D|--10--10--10--10--10-------9---9---9---9---9-------|
A|---------------------------------------------------|
E|---------------------------------------------------|

e|------------------------------------|
B|------------------------------------|
G|---10-10-10-10----10----9--9--9--9--|
D|--7--7--7--7--7--------5--5--5--5---|
A|------------------------------------|
E|------------------------------------|

I want to post or [tab]
guest
You may want to rate the tab now too:
select rating
Please do not post tabs as comments. Select "correction" instead!