Oops, an error
Loading. Please wait.

Circle The Sky Tab

version 3
version 3

Whole song

Interactive

5,234 views 1 this week
3 commentsread comments
1 2 3 4 5
accurate
x 3
add to favorites
launch autoscroll
font size
0
reset
how to read this tab
guitar tuner
Tab Pro tools
  • play this tab
  • loop segment
  • change instrument
  • show fretboard
  • metronome
Autoscroll
slow
fast
+/-
esc
set tempo
stop
Contributor
Intro
|---------------|
|---------------|
|---------------|
|-7-5-3-2-------|
|-8-7-5-3-------|
|---------------|

Riff 1

|----------------------------------------------------------------------|
|----------------------------------------------------------------------|
|----------------------------------------------------------------------|
|----------------------------------------------------------------------|
|5-5-5-5-5-5-5-5--7-7-7-7--8-8-8-8--3-3-3-3-3-3-3-3--7-7-7-7--8-8-8-8--|
|----------------------------------------------------------------------|

------------------------------------------------------------------|
------------------------------------------------------------------|
------------------------------------------------------------------|
-----------------------------------8-8-7-7-5-5-7-7----------------|
------------------7-7-7-7--8-8-8-8--------------------------------|
-8-8-8-8-8-8-8-8--------------------------------------------------|

Riff 2

|----------------------------------------------------------------------------|
|----------------------------------------------------------------------------|
|----------------------------------------------------------------------------|
|----------------------------------------------------------------------------|
|---5---7h8----5---7h8----7p5----5---7h8---8-8-8-8--7-7-7-7--5-5-5-5--4-4-4-4|
|00---0-----00---0-----00-----00---0-----------------------------------------|


Break down 1

|----------------|
|----------------|
|----------------|
|0-000-000-000---|
|0-000-000-000---|
|0-000-000-000---|


Break Down 2

|-----------------------------|
|-----------------------------|
|-----------------------------|
|-0-0-00-00-0-0-00-00--3-1----|
|-0-0-00-00-0-0-00-00--3-1----|
|-0-0-00-00-0-0-00-00--3-1----|


Break Down 2 Part 2

|-----------------------------||---------|
|-----------------------------||---------|
|-----------------------------||---------|
|-0-0-00-00-0-0--------3-1----||-3-1-5-2-|
|-0-0-00-00-0-0--------3-1----||-3-1-5-2-|
|-0-0-00-00-0-0--------3-1----||-3-1-5-2-|

Riff 3

|------------------------------------------------------------------------|
|------------------------------------------------------------------------|
|------------------------------------------------------------------------|
|------------------------------------------------------------------------|
|-5-5-5-5-5-5-5-5--7-7-7-7--8-8-8-8--------------------8-8-8-8--7-7-7-7--|
|-------------------------------------8-8-8-8-8-8-8-8--------------------|

-------------------------------------------------------------------------|
-------------------------------------------------------------------------|
-------------------------------------------------------------------------|
--5-5-5-5-5-5-5-5--------------------------------------------------------|
-------------------8-8-8-8--7-7-7-7--3-3-3-3-3-3-3-3---5-5-5-5-5-5-5-5---|
-------------------------------------------------------------------------|

--------------------------------------------------------------------------|
--------------------------------------------------------------------------|
--------------------------------------------------------------------------|
--------------------8-8-8-8-8-8-8-8-8--7-7-7-7--5-5-5-5-------------------|
--7-7-7-7--8-8-8-8--------------------------------------------------------|
---------------------------------------------------------8-8-8-8-8-8-8-8--|

-----------------------------|
-----------------------------|
-----------------------------|
-----------------------------|
---8-8-8-8--7-7-7-7--3-3-3-3-|
-----------------------------|

Interlude

|-------------|
|-------------|
|-------------|
|-------8-7-5-|
|-5-7-8-------|
|-------------|

Riff 4

|---------------------------------------------------|
|---------------------------------------------------|
|---------------------------------------------------|
|---------------------------------------------------|
|-5p4h5-7p5h7-10p8h10-8p7h8-5p4h5-7p5h7-8p7h8-7p5h7-|
|---------------------------------------------------|

Riff 5

|----------------------------------------------------------------------------|
|----------------------------------------------------------------------------|
|----------------------------------------------------------------------------|
|-8-8-8-8-8-8-8---8-8-8-8-8-8-5--0-0-0--0-0-0----------0-0-0--0-0-0----------|
|-8-8-8-8-8-8-8---8-8-8-8-8-8-5--0-0-0--0-0-0--5p4h5/7-0-0-0--0-0-0--7p5h7/8-|
|-8-8-8-8-8-8-8---8-8-8-8-8-8-5--0-0-0--0-0-0----------0-0-0--0-0-0----------|


---------------------------------------------------------------------------|
---------------------------------------------------------------------------|
---------------------------------------------------------------------------|
-8-8-8-8-8-8-8---8-8-8-10-7-6--0-0-0--0-0-0----------0-0-0--0-0-0----------|
-8-8-8-8-8-8-8---8-8-8---------0-0-0--0-0-0-5p4h5/7--0-0-0--0-0-0--7p5h7/8-|
-8-8-8-8-8-8-8---8-8-8---------0-0-0--0-0-0----------0-0-0--0-0-0----------|


Riff 6

|---------------------------------------------------------------------------|
|---------------------------------------------------------------------------|
|---------------------------------------------------------------------------|
|---------------------------------------------------------------------------|
|7-7-7-7-5-5-5-5-8-8-8-8-7-7-7-7-10-10-10-10-8-8-8-8-12-12-12-12-10-10-10-10|
|---------------------------------------------------------------------------|

Riff 7

|-----------------------------------------------------------------|
|-----------------------------------------------------------------|
|-----------------------------------------------------------------|
|-----------------------------------------------------------------|
|-------8---7---5---8-7-5-8-7-5-------10---8---7---10---8---7---8-|
|-0-0-0---0---0---0-------------8-8-8----8---8---8----8---8---8---|


Break Down 3

|----------------------------|
|----------------------------|
|----------------------------|
|-000-000-000--0--00-000-000-|
|-000-000-000--0--00-000-000-|
|-000-000-000--0--00-000-000-|
comments
We did not receive enough feedback on this tab! Please rate:
print report bad tab
1 2 3 4 5
3 comments total.
0 reply
rain_in_blood27 wrote on January 22 2009, 07:01 pm

It has a few mistakes and your missing a few part but overall its pretty good.

0 reply
shugo449 wrote on March 28 2009, 03:56 pm

tuning?

0 reply
carrick wrote on April 1 2009, 07:27 pm

Drop C

I want to post or [tab]
guest
You may want to rate the tab now too:
select rating
Please do not post tabs as comments. Select "correction" instead!