Oops, an error
Loading. Please wait.

Headshot Tab

version 2
version 2

Whole song

Interactive

2,978 views 1 this week
2 commentsread comments
1 2 3 4 5
2 more votes to show rating
add to favorites
launch autoscroll
font size
0
reset
how to read this tab
guitar tuner
Autoscroll
slow
fast
+/-
esc
set tempo
stop
Help us to improve Ultimate-Guitar.com Take our survey!
×
Author
Difficulty
Tuning
intermediate
B F# B E G# C#
Headshot-Mychildren Mybride
[Unbreakable]
myspace.com/mcmb
drop b tuning-b f# b e g# c#

myspace.com/60934075



-----------------------------------------------------------------------------|
o----------------------------------------------------------------------------|
-----------------------------------------------------------------------------|
-----------------------------------------------------------------------------|
o----8-5-----10-7------10-10-----13-12-----5-5-----5-5----4--8887775---------|
--000-0---000--0---000---0----000--0----888-8--888--8--777-------------------|
PM... .   ...  .   ...   .    ...  .    ... .  ...  .  ...


-----------------------------------------------------------------------------|
---------------------------------------------------------------------------o-|
-----------------------------------------------------------------------------|
-----------------------------------------------------------------------------|
-----8-5-----10-7------10-10-----13-12-----5-5-----5-5----4--8-7-----------o-|
--000-0---000--0---000---0----000--0----888-8--888--8--777-------------------|
PM... .   ...  .   ...   .    ...  .    ... .  ...  .  ...


tremelo pick
---------------------------------------------------------------------------------------------|
---------------------------------------------------------------------------------------------|
---------------------------------------------------------------------------------------------|
---------------------------------------------------------------------------------------------|
55555-00000--55555-44444--44444-5555-77777---88888-00000--88888-77777--77777-88888-1010101010|
---------------------------------------------------------------------------------------------|


---------------------------------------------------------------------------------------------|
---------------------------------------------------------------------------------------------|
---------------------------------------------------------------------------------------------|
---------------------------------------------------------------------------------------------|
------------------------------------------------44444-888-4444-10----------------------------|
88888-55555-88888-77777-33333-77777-55555-22222----------------------------------------------|




i'll finish it later...
Suggest correction
Give kudos to tab author, rate the tab!
1 2 3 4 5
comments
print report bad tab
2 comments total.
0 reply
lpguitarplayer3 307 Sep 10, 2009 12:32 PM

not very accurate especially the 6th string in the intro....idk how you missed that one

0 reply
nandoisthrash 31 Sep 10, 2009 12:39 PM

well if you have any corrections..ill be happy to change it

guest
You may want to rate the tab now too:
select rating
Wanna post a correction for this tab? Suggest correction