Oops, an error
Loading. Please wait.

Hooligans Tab

version 2
version 2

Whole song

1,103 views 1 this week
2 commentsread comments
1 2 3 4 5
excellent!
x 1
add to favorites
launch autoscroll
font size
0
reset
how to read this tab
guitar tuner
Tab Pro tools
  • play this tab
  • loop segment
  • change instrument
  • show fretboard
  • metronome
Autoscroll
slow
fast
+/-
esc
set tempo
stop
Contributor
-------------------------------------------------------------
  Hooligans- Mychildren Mybridge
-------------------------------------------------------------


Tabbed By: Crovo717(Cj Crovo)
e-mail: Crovo7172live.com

Tuning: Drop B

Beginning
C#|----------------|
G#|----------------|
 E|----------------|
 B|----------------|
F#|-8-5-10-5~------|
 B|-8-5-10-5~------|


Verse Uno
C#|-----------------------|
G#|-----------------------|
 E|-----------------------|
 B|-----------------------|
F#|-5--1-0-4---5--4-1-0---| x4
 B|-5~-1-0-4~--5~-4-1-0~--|
       . .        . .

Verse Dos
C#|-------------------------------------------------------|
G#|-------------------------------------------------------|
 E|-------------------------------------------------------|
 B|-5------8------1------4-------5------8------111-1-4-4--|
F#|-5-[x4]-8-[x4]-1-[x4]-4-------5-[x4]-8-[x4]-111-1-4-4--| x2
 B|-5------8------1------4-------5------8------111-1-4-4--|


Verse Tres
C#|----------------|
G#|----------------|
 E|----------------|
 B|--5--1--4-------|
F#|--5--1--4-------| x4
 B|--5~-1~-4~------|

Verse Cuatro 
C#|--------------------------|
G#|--------------------------|
 E|--------------------------|
 B|-5------1------4----------|
F#|-5-[x4]-1-[x4]-4--[x8]----| x4
 B|-5------1------4----------|

annnd harmony

C#|---------------------------|
G#|---------------------------|
 E|-11------6------9----------|
 B|--x------x------x----------|
F#|--8-[x4]-4-[x4]-7--[x8]----| x4
 B|---------------------------|



Verse Uno Again
C#|----------------------------------------|
G#|----------------------------------------|
 E|----------------------------------------|
 B|----------------------------------------|
F#|-5--1-0-4---5--4-1-0--------------------| x4
 B|-5~-1-0-4~--5~-4-1-0~---(drum triplets)-|
       . .        . .


Verse Cinco
C#|-------------------------------|
G#|-------------------------------|
 E|-------------------------------|
 B|--5-----------------------5-4-4-|
F#|--5-----------------------5-4-4-| x2
 B|--5~-(What Goes Around..)-5-4-4-|
                             .

Verse Dos Again
C#|-------------------------------------------------------|
G#|-------------------------------------------------------|
 E|-------------------------------------------------------|
 B|-5------8------1------4-------5------8------111-1-4-4--|
F#|-5-[x4]-8-[x4]-1-[x4]-4-------5-[x4]-8-[x4]-111-1-4-4--| x2
 B|-5------8------1------4-------5------8------111-1-4-4--|


 Verse 6(Breakdown!)
C#|-----------------------|
G#|-----------------------|
 E|-----------------------|
 B|-----------------------|
F#|--000-00000000-000-000-| x4
 B|--000-00000000-000-000-|
     ... ........ ... ...


If there are any questions, e-mail me.
comments
We did not receive enough feedback on this tab! Please rate:
print report bad tab
1 2 3 4 5
2 comments total.
0 reply
lpguitarplayer3 wrote on September 9 2010, 10:25 pm

DAMN YOU!!!! hahaha man I was JUST about to tab this out and submit it but you got it down great. lol

Great tab man...but now I gotta find another song to do haha

0 reply
adrinhxc wrote on December 6 2010, 09:41 pm

great tab bro, i was gonna do this awhile back but got way to lazy.
the only thing wrong is your harmony
instead of this
C#|---------------------------|
G#|---------------------------|
E|-11------6------9----------|
B|--x------x------x----------|
F#|--8-[x4]-4-[x4]-7--[x8]----| x4
B|---------------------------|
its this
C#|--------------------------------------------------------|
G#|-8-----4-----7-------8-----10----14-----8-----4-----7---|
E|-x-----x-----x---(x2)x-----x-----x------x-----x-----x---|
B|-5-x4--1-x4--4-x8----5-x4--7-x4--11-x8--5-x4--1-x4--4-x8|
F#|--------------------------------------------------------|
B|--------------------------------------------------------|

I want to post or [tab]
guest
You may want to rate the tab now too:
select rating
Please do not post tabs as comments. Select "correction" instead!