Oops, an error
Loading. Please wait.

Appelle Mon Numro Chords

5,171 views 6 this week
no commentswrite comment
1 2 3 4 5
x 3
add to favorites
launch autoscroll
font size
0
reset
transpose
0
reset
display chords
guitar tuner
Autoscroll
slow
fast
+/-
esc
set tempo
stop
Help us to improve Ultimate-Guitar.com Take our survey!
×
Author
Difficulty
novice
Mylène Farmer - Appelle mon numéro (de l'album Point de Suture)
By WOC



Intro
  
E||---------------|---------------|---------------|------------------||
B||--7-5----------|--7-5----------|--7-5-8--------|--7-5-------------||
G||------4---2S-6-|------4---2S-4-|----------4S-6-|------4---4S-6-18-||
D||---------------|---------------|---------------|------------------||
A||---------------|---------------|---------------|------------------||
E||---------------|---------------|---------------|------------------||

Les accords:

          Couplet

     Bm   G    A    F#m               
                 
E||--2----3----5----2----|
B||--3----3----5----2----|
G||--4----4----6----2----|
D||--4----5----7----4----|
A||--2----5----7----4----|
E||-------3----5----2----|



         Refrain

       Dm   A#    C    Am             
                 
E||--5----6-----8----5----|
B||--6----6-----8----5----|
G||--7----7-----9----5----|
D||--7----8----10----7----|
A||--5----8----10----7----|
E||-------6-----8----5----|



--------------------------------------------
Couplet 1 :

Bm         G                A   F#m             Bm
Qui      entre dans l’histoire, Entre dans le noir
G              A    F#m
Histoire d’y voir, Mon plus beau geste

J’ai un pillow du soir
Un pillow de star
Sans pillow je n’ai
Plus l’envie d’être

Qui entre dans l’histoire
Cache derrière un fard, noir
La peur des regards
Qui glissent et blessent

J’ai un pillow en plumes
En forme de lune
En forme de dune
Refais le geste

--------------------------------------------
Refrain :

Dm       A#                     C         Am
Aaaaaa  Appelle mon numéro, J’humeur à zéro
Appelle mon numéro
J’ai le sang si chaud
Appelle mon numéro
Viens dans mon sillage
Ni trop sage
Ni collage
Juste ce qu’il me faut

Appelle mon numéro
Compose ma vie
Appelle mon numéro
Fais-moi l’hallali 
Appelle mon numéro
Donne-moi le « la »
Lalalala
Lalalala
Appelle-moi
--------------------------------------------
Couplet 2 :

Qui entre dans l’histoire
Entre dans le noir
Velours d’un boudoir
Et pour le reste...

J’ai un pillow duvet
Sans pilosité
Sans pillow je n’ai
Plus rien à mettre

Allégorie, viens là
Délit de l’émoi
Mon au-delà, c’est l’i...
...vresse du geste

À la folie j’ai « l’a…llo »
Qui me dit : au lit, là !
L’embellie c’est l’o…
Reiller, de rêve
--------------------------------------------
Refrain :

Appelle mon numéro
J’humeur à zéro
Appelle mon numéro
J’ai le sang si chaud
Appelle mon numéro
Viens dans mon sillage
Ni trop sage
Ni collage
Juste ce qu’il me faut

Appelle mon numéro
Compose ma vie
Appelle mon numéro
Fais-moi l’hallali 
Appelle mon numéro
Donne-moi le « la »
Lalalala
Lalalala
Appelle-moi
Suggest correction
Give kudos to tab author, rate the tab!
1 2 3 4 5
comments
print report bad tab
guest
You may want to rate the tab now too:
select rating
Wanna post a correction for this tab? Suggest correction