Oops, an error
Loading. Please wait.

Il Ny A Pas Dailleurs Bass Tab

230 views 1 this week
no commentswrite comment
1 2 3 4 5
please rate
add to favorites
launch autoscroll
font size
0
reset
guitar tuner
Autoscroll
slow
fast
+/-
esc
set tempo
stop
Help us to improve Ultimate-Guitar.com Take our survey!
×
Author
Difficulty
---------------------------------------------------
     IL N'Y A PAS D'AILLEURS - Mylene Farmer
---------------------------------------------------

Tabbed By: allo_oui_c_moi
e-mail: allo_oui_c_moi@yahoo.fr

INTRO
G|---------|---------|
D|---------|---------|
A|-1---3---|-1-3-3---|
E|---3---1-|-------1-|

VERSE
G|---------|---------|---------|---------|
D|---------|---------|---------|---------|
A|---------|---5-3---|-1---3---|-1-3-3---|
E|-1-4-0-1-|-4-----1-|---3---1-|-------1-| 

CHORUS
G|---------|---------|---------|---------|
D|---------|---------|---------|---------|
A|---------|-1-1-1-1-|-3-3-3-3-|-3-3-3-3-|
E|-1-1-1-1-|---------|---------|---------|

G|---------|---------|---------|---------|
D|---------|---------|---------|---------|
A|---------|-1-1-1-1-|-3-3-3-3-|-3-3-3-3-|
E|-1-1-1-1-|---------|---------|---------|

G|---------|---------|---------|---------|
D|---------|---------|---------|---------|
A|---------|-5-5-5-5-|-6-6-6-6-|-5-5-5-5-|
E|-1-1-1-1-|---------|---------|---------|

G|---------|---------|---------|---------|
D|---------|---------|---------|---------|
A|-3-3-3-3-|-1-1-1-1-|-3-3-3-3-|-1-1-1-1-|
E|---------|---------|---------|---------|

BRIDGE
G|---------|---------|---------|---------|
D|---------|---------|---------|---------|
A|---1-3---|---1-3---|---1-3---|---1-3---|
E|-1-------|-1-------|-1-------|-1-------|

STRUCTURE:
INTRO
VERSE  x 2
CHORUS x 2
VERSE  x 2
CHORUS x 2
BRIDGE
CHORUS x n
Suggest correction
Give kudos to tab author, rate the tab!
1 2 3 4 5
comments
print report bad tab
guest
You may want to rate the tab now too:
select rating
Wanna post a correction for this tab? Suggest correction