Oops, an error
Loading. Please wait.

Lamour Nest Rien Chords

2,767 views 3 this week
no commentswrite comment
1 2 3 4 5
please rate
add to favorites
launch autoscroll
font size
0
reset
transpose
0
reset
display chords
guitar tuner
Tab Pro tools
  • play this tab
  • loop segment
  • change instrument
  • show fretboard
  • metronome
×
Best way to learn
"Lamour Nest Rien"
Autoscroll
slow
fast
+/-
esc
set tempo
stop
Contributor
Difficulty
WOC
novice
Mylène Farmer - L'amour n'est rien

Tabbed by Woc
Adresse E-mail: Hysteron@wanadoo.fr

Guitare

Couplet
     D#m  A#m  C#   A#m     
E||--2----1----1----1----||
B||--4----2----2----2----||
G||--3----3----1----3----||
D||--1----3----3----3----||
A||-------1----4----1----||
E||----------------------||

D#m
Obsédée du pire 
Et pas très prolixe
A#m
Mes moindres soupirs 
Se métaphysiquent... 
C#
J'ai dans mon ciel 
Des tonnes de célestes
A#m
M'accroche aux ailes... 
Et tombe l'ange Gabriel! 

Refrain
     C#   G#   D#m  G#      G#        
E||--1----4----2----4----|--4----||
B||--2----4----4----4----|--1----||
G||--1----5----3----5----|--1----||
D||--3----6----1----6----|--1----||
A||--4----6---------6----|--3----||
E||-------4---------4----|--4----||

C#        
L'amour, c'est rien !
G#
Quand c'est politiquement correct
D#m
On s'aime bien 
G# 
On n' sait même pas quand on se blesse

Evidemment on peut la jouer avec un capodastre aussi 
C'est plus facile!

Du coup ça donne ça

(Capo 1)

     Dm   Am   C    Am          
E||--1----0----0----0----||
B||--3----1----1----1----||
G||--2----2----0----2----||
D||--0----2----2----2----||
A||-------0----3----0----||
E||----------------------||

     C    G    Dm   G          
E||--0----3----1----3----||
B||--1----0----3----0----||
G||--0----0----2----0----||
D||--2----0----0----0----||
A||--3----2---------2----||
E||-------3---------3----||

On peut aussi la jouer comme ça, un peu plus haut

  D#m  A#m  C#   A#m          
E||--6----6----4----6----||
B||--7----6----6----6----||
G||--8----6----6----6----||
D||--8----8----6----8----||
A||--6----8----4----8----||
E||-------6---------6----||

Refrain
     C#   G#   D#m  G#          
E||--4----4----6----4----||
B||--6----4----7----4----||
G||--6----5----8----5----||
D||--6----6----8----6----||
A||--4----6----6----6----||
E||-------4---------4----||

Basse (synthé)
G||----------------------|----------------------|
D||----------------------|----------------------|
A||--6----6----6---------|--6----6----6---------|
E||----------------------|----------------------|

----------------------|----------------------|
----------------------|----------------------|
----------------------|----------------------|
--6----6----6---------|--6----6----6---------|

----------------------|----------------------|
----------------------|----------------------|
--4----4----4---------|--4----4----4---------|
----------------------|----------------------|

----------------------|----------------------||
----------------------|----------------------||
----------------------|----------------------||
--6----6----6---------|--6----6----6---------||

Lyrics

Couplet 1 : ( D#m  A#m  C#   A#m )
Refrain : ( C#   G#   D#m  G# )
Couplet 2 : ( D#m  A#m  C#   A#m )
comments
We did not receive enough feedback on this tab! Please rate:
print report bad tab
1 2 3 4 5
I want to post or [tab]
guest
You may want to rate the tab now too:
select rating
Please do not post tabs as comments. Select "correction" instead!