Oops, an error
Loading. Please wait.

Qi Tab

1,039 views 6 this week
no commentswrite comment
1 2 3 4 5
please rate
add to favorites
launch autoscroll
font size
0
reset
how to read this tab
guitar tuner
Autoscroll
slow
fast
+/-
esc
set tempo
stop
Help us to improve Ultimate-Guitar.com Take our survey!
×
Author
Difficulty
novice
Mylene Farmer - Q.I

Avec des power chords et les accords pour le refrain ça rend pas trop mal

     D#5                         C#5                       
E||---------------------------|---------------------------|
B||---------------------------|---------------------------|
G||--8---8--8--8--8--8--8--8--|--6---6--6--6--6--6--6--6--|
D||--8---8--8--8--8--8--8--8--|--6---6--6--6--6--6--6--6--|
A||--6---6--6--6--6--6--6--6--|--4---4--4--4--4--4--4--4--|
E||---------------------------|---------------------------|

     F#5                         G#5                           
   ---------------------------|---------------------------|
   ---------------------------|---------------------------|
   ---------------------------|---------------------------|
   --4---4--4--4--4--4--4--4--|--6---6--6--6--6--6--6--6--|
   --4---4--4--4--4--4--4--4--|--6---6--6--6--6--6--6--6--|
   --2---2--2--2--2--2--2--2--|--4---4--4--4--4--4--4--4--|


Refrain : (2ème partie du refrain)

     D#m  C#   F#   G#m            
          
E||--2----1----2----4----|-------||
B||--4----2----2----4----|-------||
G||--3----1----3----4----|-------||
D||--1----3----4----6----|-------||
A||-------4----4----6----|-------||
E||------------2----4----|-------||
Suggest correction
Give kudos to tab author, rate the tab!
1 2 3 4 5
comments
print report bad tab
guest
You may want to rate the tab now too:
select rating
Wanna post a correction for this tab? Suggest correction