Oops, an error
Loading. Please wait.

A Little Bit Tab

version 1
version 1
by MYMP
19,508 views 21 this week
2 commentsread comments
1 2 3 4 5
worth learning
x 10
add to favorites
launch autoscroll
font size
0
reset
how to read this tab
guitar tuner
Autoscroll
slow
fast
+/-
esc
set tempo
stop
Help us to improve Ultimate-Guitar.com Take our survey!
×
Author
PHILIPPINES
MYMP - a little bit
transcribed by: shernan medina
standard tuning

this is not 100% complete pero pwede na! un lead kinakapa ko pa lang
pero malapit na rin matapos yun! paki-rate nyo na lang...

INTRO:

|-----5--------4-----|----3-----|------------------------------|
|--7--------5-----5--|--3-------|---5--------------------------|
|--------------------|----------|---2-----------------2--------|
|--------------------|----------|------------------------------|
|--5--------4--------|--3-------|---2--------------------------|
|--------------------|----------|------------------------------|

VERSE I:
I was kinda...         should i let..  I was             before

|--4----4-------0----|--4--------------|-4-----4--------0------|
|--2-----------------|-----4-----------|-2---------------------|
|--------------------|----------4------|-----------------------|
|--------------------|--2--------------|-----------------------|
|--0---------0-----0-|-----------------|-0---------0-----------|
|--------------------|---------------0-|---------------------0-|


need i say more     or maybe im....   are near me
|------4----2---0----|-4------4----0---|-4----4----------------|
|-----------3---1----|-----------------|-4---------------------|
|----4------2---1----|-----------------|---------------4-------|
|--------------------|-----------------|-2---------------------|
|-----------2---1----|-0----0----0----0|-----------------------|
|-4------------------|-----------------|-----------------------|

dont know what..   should be        there's only one in my 
|-4---4------0-----4---|------4---2---0-|--4---4------0--------|
|----------------------|----------3---1-|--2-------------------|
|---2-----2------------|----4---------1-|----------------------|
|----------------------|----------------|----------------------|
|-0-------------0------|----------2---1-|--0------0------------|
|---------------------0|--4-------------|-------------------0--|

  mind            that's you and me                       I'm a
|-----4----------4-----|-5--------5---------|------------------|
|----------------------|-7---7----------7---|-5---5------------|
|---4---------4--------|---6------------6---|-2---2------------|
|----------------------|--------------------|------------------|
|--------3/4-------4---|-5------5----5----0-|-2-2--------------|
|-4--------------------|--------------------|---------2--------|


CHORUS:
    little bit.. little bit of fool..im a little bit.. im a
|--0-----------|--4---------4---------|---0--------------------|
|--2-----------|--4---------5---------|---2--------------------|
|--1-----------|--4---------6---------|---1--------------------|
|--2-----------|--6---------6---------|---2--------------------|
|--0-----------|--6---------4---------|---0--------------------|
|--------------|--4-------------------|------------------------|

 little bit..    need a cure just a little bit of you
|--4-----2---0-|--0-------------------|-4--------4-------------|
|--4-----3---1-|--2-------------------|-4--------5-------------|
|--4-----2---1-|--1-------------------|-4--------4-------------|
|--6-----4-----|--2-------------------|-6--------6-------------|
|--6-----2---1-|--0-------------------|-6--------4-------------|
|--4-----------|----------------------|-4----------------------|

          and i will fall..
|-------4------|--5-------------------|------------------------|
|--5-----------|--7-------------------|--5-----------4---------|
|----4---------|--6-------------------|--2-----------4---------|
|--------------|--7-------------------|------------------------|
|--4-----------|--5-------------------|--2---------------------|
|--------------|----------------------|------------------------|

VERSE II: just do the verse I part

REPEAT CHORUS

ENDING:

|----5-------4----------3--------------------------------------|
|-7----7--5----5----3-------3---------5------------------------|
|-------------------------------------2------------------------|
|-------------------------------------4------------------------|
|-5-------4---------3-----------------2------------------------|
|--------------------------------------------------------------|


that would be all.. 
hope y'all enjoy it!!


this one is for ma' girl... jen.. I love yah so much!!!
Suggest correction
What's this?
You can suggest a correction to this tab. Community and Mods will review your correction and vote to approve or reject it.
comments
print report bad tab
2 comments total.
0 reply
audjie 12 wrote on October 1 2004, 12:00 am

ok sya

0 reply
audjie 12 wrote on October 1 2004, 12:00 am

paano po yung adlib?? thx

guest
You may want to rate the tab now too:
select rating
Please do not post tabs as comments. Select "correction" instead!