Oops, an error
Loading. Please wait.

A Little Bit Tab

version 5
version 5
by MYMP
2,785 views 1 this week
no commentswrite comment
1 2 3 4 5
x 5
add to favorites
launch autoscroll
font size
0
reset
how to read this tab
guitar tuner
Autoscroll
slow
fast
+/-
esc
set tempo
stop
Help us to improve Ultimate-Guitar.com Take our survey!
×
Author
~**A LITTLE BIT**~
~MYMP~
tabbed by: sHeRwiN BuLaLa
*_*_*_sherwin_807@yahoo.com_*_*_*

**This is tabbed by Sherwin originally, I just added the solo for it, okay?thanks!!

^^^ *additional solo by: joshnerez (joshnerez@yahoo.com)

i dont think this is 100% correct but...
this tab is 99.8% correct...
rate nyo poh!!!please!!

intro:
|---5----4----3--0-|
|-7----5----3------|
|------------------|
|------------------|
|-5----4----3----2-|
|------------------|

verse1:
|-4--4------4--4--4-|----4---4----4---------|
|----5---5--4--4----|----5--------4---7---5-|
|---6--6---------4--|---6--6----------------|]
|--7--------2-------|--7--------------------|]2x
|-0-----------------|-0----------6--0-4-0-2-|
|-------------------|-----------4-----------|

|----4---------4---------------5----------|
|----5---5-----4---5--5-----7-----5---5---|
|---6--6---6---4---4--4----6----------2---|
|--7---------------6-6----7---7-----4-----|
|-0-----------6--0-4-----5--------2-------|
|------------4----------------------------|

chorus:
|--4----------------------4---4----|
|--5----------------------4---5----|
|--6----------------------4---4----|
|--7----------------------4---6----|
|--0----------------------6---4----|
|--x----------------------4--------|
im a little bit of crazy,.........
|--4------------------4---4/2----|
|--5------------------4---7/5----|
|--6------------------4---4/2----|
|--7------------------4---6/4----|
|--0------------------6---4/2----|
|--x------------------4----------|
im a little bit of lonely.........
|--4--4-----4------------4-----------4-------|
|--5--5-----------5------4---5-----5---------|
|--6--6--6---------------4-------4-----------|
|--7-----------7--------4------6-------------|
|--0--------------------6----4---------------|
|--x------------------0-4--------------------|
i need a cure.......
|-----------------------|
|--7-------7---------5--|
|------6-------6--------|
|----7---7---7----------|
|--5-----------------2--|
|-----------------------|
& i will fall............

verse2:
1		     2					 1		       2
|-4--4--------------|----4---4----4---------|	|------------------|--7h9-9-|
|----5---5--9--9--9-|----5--------4---7---5-|	|------------------|--7h9---|
|---6--6----8--8----|---6--6----------------|]	|------------------|--------|
|--7-------------9--|--7--------------------|]2x|---------9-9/11-9-|--------|
|-0---------7-------|-0----------6--0-4-0-2-|	|7-9-9/11----------|--------|
|-------------------|-----------4-----------|	|------------------|--------|
im always on d run.....
|-4--4---------4---------------5----------|
|----5---5-----4---5--5-----7-----5---5---|
|---6--6---6---4---4--4----6----------2---|
|--7---------------6-6----7---7-----4-----|
|-0-----------6--0-4-----5--------2-------|
|------------4----------------------------|

chorus2:
|--4----------------------4---4----|
|--5----------------------4---5----|
|--6----------------------4---4----|
|--7----------------------4---6----|
|--0----------------------6---4----|
|--x----------------------4--------|
im a little bit of crazy,.
|--4------------------4---4/2----|
|--5------------------4---7/5----|
|--6------------------4---4/2----|
|--7------------------4---6/4----|
|--0------------------6---4/2----|
|--x------------------4----------|
im a little bit of a lonely,
|--4--4-----4------------4-----------4-------|
|--5--5-----------5------4---5-----5---------|
|--6--6--6---------------4-------4-----------|
|--7-----------7--------4------6-------------|
|--0--------------------6----4---------------|
|--x------------------0-4--------------------|

|---5----4----3--0-|
|-7----5----3------|
|------------------|
|------------------|
|-5----4----3----2-|
|------------------|

   *solo...(the song is in the key of A, so easy e-figure out all the chord changes)

|--------------------------------|
|--10-10-9h10---9-10-9---5~------|
|--------------------------------|
|---7--7-6h7----6--7-6---2~------|
|--------------------------------|
|--------------------------------|

|-------------------------------|
|--10-10-9h10---9-10s14---12~---|
|-------------------------------|
|---7--7-6h7----6--7s11----9----|
|-------------------------------|
|-------------------------------|

|--------------------------------|
|--10-10-9h10---9-10-9---5~------|
|--------------------------------|
|---7--7-6h7----6--7-6---2~------|
|--------------------------------|
|--------------------------------|

|---------------9-------9--------9----------------|
|-------------------------------------------------|
|------9-11b12----11b12---11b12----11b12r9----9~--|
|--s11-------------------------------------11-----|
|-------------------------------------------------|
|-------------------------------------------------|

verse3:(after solo/adlib)

|-4--4------4--4--4-|----4---4----4---------|
|----5---5--4--4----|----5--------4---7---5-|
|---6--6---------4--|---6--6----------------|]
|--7--------2-------|--7--------------------|]2x
|-0-----------------|-0----------6--0-4-0-2-|
|-------------------|-----------4-----------|

|----4---------4---------------5----------|
|----5---5-----4---5--5-----7-----5---5---|
|---6--6---6---4---4--4----6----------2---|
|--7---------------6-6----7---7-----4-----|
|-0-----------6--0-4-----5--------2-------|
|------------4----------------------------|

chorus3:

|--4----------------------4---4----|
|--5----------------------4---5----|
|--6----------------------4---4----|
|--7----------------------4---6----|
|--0----------------------6---4----|
|--x----------------------4--------|
im a little bit of crazy,.
|--4------------------4---4/2----|
|--5------------------4---7/5----|
|--6------------------4---4/2----|
|--7------------------4---6/4----|
|--0------------------6---4/2----|
|--x------------------4----------|
im a little bit of a lonely,
|--4--4-----4------------4-----------4-------|
|--5--5-----------5------4---5-----5---------|
|--6--6--6---------------4-------4-----------|
|--7-----------7--------4------6-------------|
|--0--------------------6----4---------------|
|--x------------------0-4--------------------|
i need a cure............
|-----------------------|
|--7-------7---------5--|
|------6-------6--------|
|----7---7---7----------|
|--5-----------------2--|
|-----------------------|
& i will fall............

|--4---------------------------4---4----|
|--5---------------------------4---5----|
|--6---------------------------4---4----|
|--7---------------------------4---6----|
|--0---------------------------6---4----|
|--x---------------------------4--------|
im juz a little bit of crazy,.....fool
|--4---------------------------4---4/2----|
|--5---------------------------4---7/5----|
|--6---------------------------4---4/2----|
|--7---------------------------4---6/4----|
|--0---------------------------6---4/2----|
|--x---------------------------4----------|
im a little bit of a lonely,,      oh,oh
|--4--4-----4------------4-----------4-------|
|--5--5-----------5------4---5-----5---------|
|--6--6--6---------------4-------4-----------|
|--7-----------7--------4------6-------------|
|--0--------------------6----4---------------|
|--x------------------0-4--------------------|
i need a cure...
|------------------------4----|
|--7-------7---------5---4----|
|------6-------6---------4----|
|----7---7---7-----------2----|
|--5-----------------2--------|
|-----------------------------|
& i will fall............
Suggest correction
comments
print report bad tab
guest
You may want to rate the tab now too:
select rating
Wanna post a correction for this tab? Suggest correction