Oops, an error
Loading. Please wait.

A Little Bit Tab

version 6
version 6
by MYMP
2,411 views 1 this week
no commentswrite comment
1 2 3 4 5
accurate
x 3
add to favorites
launch autoscroll
font size
0
reset
how to read this tab
guitar tuner
Autoscroll
slow
fast
+/-
esc
set tempo
stop
Help us to improve Ultimate-Guitar.com Take our survey!
×
Author
Artist:  M.Y.M.P.
Song Title:  A Little Bit
Transcribed By:  Kenneth Arceo
Okay, I dont lyk dis song at all but since no1 tabbed the plucking I thought i'd do it
myself. Didnt tab the 2nd verse and chorus but u guys can figure it out... Hi! 2 all
Centralians. NjOY 



INTRO

e------5-------|-----4--------|-----3--------|-0------------|
B--7-----------|-5------------|-3------------|--------------|
G--------------|--------------|--------------|--------------|
D--------------|--------------|--------------|--------------|
A--5-----------|-4------------|-3------------|-2------------|
E--------------|--------------|--------------|--------------|



VERSE 1

e--4--4--------|-4------------|-4--4---------|-----4-------------|
B--5-------5---|-4--4---------|-5-------5----|-----4----7---5----|
G--6-----------|-4-----4------|-6------------|----------4---2----|
D--7-----------|-2------------|-7------------|----------6---4----|
A--0-----0-----|-x------------|-0-----0------|---6----0-4-0-2--0-|
E------------2-|-0--------2---|-----------2--|-4-----------------|


e--4---4-------|-4---4--------|-4-4----------|-----4-------------|
B--5-------5---|-4------4-----|-5-5---5--5---|-----4----7---5----|
G--6-----------|-4-------4----|-6-6-6--------|----------4---2----|
D--7-----------|-2--------2---|-7-7----------|----------6---4----|
A--0--0--0-----|--------------|-0-------0----|---6----0-4-0-2--0-|
E------------2-|--------------|------------2-|-4-----------------|


e--4--4--------|-4--4----4--4---|-5-------5-------|-2---2--------|
B--5-------5---|-4-4-----5------|-7---7-------7---|-5---5--------|
G--6-----------|-4-------4-4----|-6--6--------6---|-2---2--------|
D--7-----------|-4-------6------|-7-----------7---|-4---4--------|
A--0-----0-----|-6-----2-4----2-|-5-----5---5---0-|-2-0-2--------|
E------------2-|-4--------------|-----------------|--------------|



CHORUS

e---4-4-4----4------|-4-4-4-----4---4-----|
B---5-5-5--5----5---|-4-4-4-----5---5-----|
G---6-6-6-----------|-4-4-4-----4---4-----|
D---7-7-7-----------|-4-4-4-----6---6-----|
A-0-0-0-0--0---0----|-6-6-6---2-4-4-4-----|
E-----------------2-|-4-4-4-----------2---|

e--4-4-4----4-------|-4-4-4---------------|
B--5-5-5--5----5----|-4-4-4----7---5------|
G--6-6-6------------|-4-4-4----4---2------|
D--7-7-7------------|-4-4-4----6---4------|
A--0-0----0---0-----|-6-6-6----4-0-2-0----|
E-----------------2-|-4-4----2------------|

e--4-4-4----4-------|-4-4-4-4---4--4---4--|
B--5-5-5--5-----5---|-4-4-4-4---5----5----|
G--6-6-6------------|-4-4-4-4---4---------|
D--7-7-7------------|-4-4-4-4---6---------|
A--0-0-0--0---0-----|-6-6-6-6---4-4-4-4-5-|
E-----------------2-|-4-4-4-4-------------|

e--5---5------------|-2-------------------|
B--7--7---7----7----|-5--------5---4------|
G--6---------6------|-2------2---1--------|
D--7----------------|-4-------------------|
A--5--------5-----0-|-2-------------------|
E-------------------|---------------------|
Suggest correction
Give kudos to tab author, rate the tab!
1 2 3 4 5
comments
print report bad tab
guest
You may want to rate the tab now too:
select rating
Please do not post tabs as comments. Select "correction" instead!