Oops, an error
Loading. Please wait.

At Your Best Tab

version 1
version 1

Whole song

Interactive

by MYMP
1,857 views 3 this week
no commentswrite comment
1 2 3 4 5
please rate
add to favorites
launch autoscroll
font size
0
reset
how to read this tab
guitar tuner
Tab Pro tools
  • play this tab
  • loop segment
  • change instrument
  • show fretboard
  • metronome
×
Best way to learn
"At Your Best"
Autoscroll
slow
fast
+/-
esc
set tempo
stop
Contributor
Transcribed by  :  Miguel Arriola   -   miguel_0417@yahoo.com
At your best
MYMP

sEQUENCE:
vERSE 1 , CHORUS , VERSE 2 , CHORUS , ENDING

Verse 1
         (G)              (Am)              (D)            
e|---------------3------|--------0----|----------------------2---------2---2--2-2-|
B|--------3---3T3--3-T--|-1---1T1--1-T|------3-----3T---3-----3----T---3---3T-3--3|
G|--------0---0A-----A--|-2---2A2----A|------2-----2A---2----------A---2---2A-2---|
D|-------------P-----P--|-2----P2----P|------0------P---0----------P---0----P-0---|
A|----------------------|-------------|-------------------------------------------|
E|--------3-----3-------|-------------|-------------------------------------------|
    When i    feel  what  i   feel       Sometimes its hard to tell you so
                       
    
        (Am7)                     (Am in 5th fret)        (Bm7) 
e|-----------------------0---|--------------5---------|--2-2-----2-------------3--|
B|-------1-1T--1-----------1T|-----5-5T-5-----5------T|--3-3T-3---3--T--3-3T--5-5T|
G|-------0-0A--0------------A|-----5-5A-5------------A|-----A-2------A--2-2A--5--A|
D|----------P---------------P|--------P--------------P|-----P--------P-----P-----P|
A|-------0-----0-------------|------------------------|--2----2---------2-----3---|
E|---------------------------|-----5----5-------------|---------------------------|      
    you may not be in the mood  to  learn   what you think you   know

                                                                           fast
         (G)               (Am)               (D)                          |---|
e|---------------3---|-------------0------|----------------2------------2----2----|
B|--------3---3T3--3T|------1---1T1--1---T|----3---3T---3----3----T-----3----3T---|
G|--------0---0A----A|------2---2A2------A|----2---2A---2---------A-----------A---|
D|-------------P----P|------2----P2------P|----0----P---0---------P-----0----0P---|
A|-------------------|--------------------|---------------------------------------|
E|--------3-----3----|--------------------|---------------------------------------| 
  there are  times    when i find      you   want to keep yourself  from me


      (Dm)    ( Am in 5th fret)                                        (Bm7)
e|-----1---|---------------------------------------------5--------|--2--2----2---2|
B|-----3-3T|-------------T----------5---T--------5--5T-5---5------|--3--3T-3--3--3|
G|------2-A|----5-----5--A-------5----5-A--------5--5A-5----------|------A-2------|
D|-----0--P|----7-----7--P-------7------P------------P------------|------P--------|
A|---------|------------------------------------------------------|--2-----2-----2|
E|---------|----5----------------5---------------5-----5----------|---------------|
          when i don't have the strength i'm just a mirror ofwhat i  see


Chorus  : USE PLUCKING
 
    (Bm)   ( C in 3rd fret)
e|---2--2-|-----3-3----------|
B|---3--3T|--5---------------|
G|-------A|--5---------------|
D|-------P|------------------|
A|---2----|--3---------------|
E|--------|------------------|

      Am7                          Bm7
But  at  your  best  you  are  loved

         Am7                             Bm7          ( Bm7 )
your  a  positive  motivating  force  within  my  life

              (C)               (Bm7)
e|----------------1-----------------2-----------------5------------|
B|-------------1-----------------3-----------------6----6----------|
G|-------------------------------2-----------------7------7--------|
D|-------------2-----------------4-----------------7---------------|
A|-------------3-----------------2-----------------5---------------|
E|-----------------------------------------------------------------|
 should  you  ever  feel  the  need  to  wonder  why

                       (5th fret)             (5th fret) 
           GM7             Am        GM7          Am           
Let  me  know,  let  me  know.....       .......                



ENDING  :
e|------------------0--------------0-|
B|--------------0------0-------0-----|
G|------------2------------2---------|
D|---------3-------------------------|
A|------3----------------------------|
E|---1-------------------------------|

VERSE  2                                                       
           G                 Am
When   you  feel  what  you  feel  
           D                        D
Oh, how  hard  for  me  to  understand  
                                       (5th fret)
     Am7                                 Am                          Bm7
so  many  things  have  taken  place  before  this  love  affair  began
             G        Am          
But  if  you  feel, oh  like  i  feel
    D
confusion  can  give  away  to  doubt
      Am7
for  there  are  times  when  i  fall  
         (5th fret)
            Am
short  of  what  i say
         Bm7
what  i  say  im  all  about

all  about
comments
We did not receive enough feedback on this tab! Please rate:
print report bad tab
1 2 3 4 5
I want to post or [tab]
guest
You may want to rate the tab now too:
select rating
Please do not post tabs as comments. Select "correction" instead!