Oops, an error
Loading. Please wait.

At Your Best Tab

version 2
version 2

Whole song

Interactive

by MYMP
591 views 1 this week
no commentswrite comment
1 2 3 4 5
excellent!
x 1
add to favorites
launch autoscroll
font size
0
reset
how to read this tab
guitar tuner
Tab Pro tools
  • play this tab
  • loop segment
  • change instrument
  • show fretboard
  • metronome
Autoscroll
slow
fast
+/-
esc
set tempo
stop
Contributor
Difficulty
novice
Song Title: At Your Best (You are Loved)
Band Name: MYMP
Tabbed by: Keno Ventolero

Guitar 1 ~ Standard Tuning
==========.
[Verse 1]:|
=========='
     Csus2                        Am7
     E.    S E  E  E  E  E  E     E.  S E  E  E  E  E  E
E||----------x-----3-----x-----|--------x-----0-----x-----|
B||--3-----3-x--------3--x-----|--1---1-x--------1--x-----|
G||--5-----5-x-----------x-----|--0---0-x-----------x-----|
D||----------x-----------x-----|--------x-----------x-----|
A||--3-------x--3--------x-----|--0-----x--0--------x--0--|
E||----------x-----------x--0--|--------x-----------x-----|
 "...you feel..."

  Bm7                        Em9
  E.  S E  E  E  E  E  E     E.  S E  E  E  E  E  E
--------x-----2-----x-----|--2---2-x-----2-----x-----|
--3---3-x--------3--x-----|--3---3-x--------3--x-----|
--2---2-x-----------x-----|--------x-----------x-----|
--------x-----------x-----|--------x-----------x-----|
--2-----x--2--------x--2--|--------x-----------x-----|
--------x-----------x-----|--0-----x--0--------x--0--|


  Am7                        D
  E.  S E  E  E  E  E  E     E.  S E  E  E  E  E  E
--------x-----0-----x-----|--------x-----5-----x-----|
--1---1-x--------1--x-----|--3---3-x--------3--x-----|
--0---0-x-----------x-----|--2---2-x-----------x-----|
--------x-----------x-----|--0---0-x--0--------x-----|
--0-----x--0--------x--0--|--------x-----------x--0--|
--------x-----------x-----|--------x-----------x-----|


  Em9                        Em9      Em7
  E.  S E  E  E  E  E  E     E.  S E  E   E  E  E  E
--2---2-x-----2-----x-----|--2---2-x--3---3-----x-----|
--3---3-x--------3--x-----|--3---3-x--3------3--x-----|
--------x-----------x-----|--------x------------x-----|
--------x-----------x-----|--------x------------x-----|
--------x-----------x-----|--------x------------x-----|
--0-----x--0--------x--0--|--0-----x--0---------x--0--|


  Csus2                        Am7
                      ^
  E.    S E  E  E  E  E  E     E.  S E  E  E  E  E  E
----------x-----3-----3-----|--------x-----0-----x-----|
--3-----3-x--------3--3-----|--1---1-x--------1--x-----|
--5-----5-x-----------5-----|--0---0-x-----------x-----|
----------x-----------5-----|--------x-----------x-----|
--3-------x--3--------3-----|--0-----x--0--------x--0--|
----------x--------------0--|--------x-----------x-----|


  Bm7                        Em9
                    ^                          ^
  E.  S E  E  E  E  E  E     E.  S E  E  E  E  E  E
--------x-----2-----2-----|--2---2-x-----2-----2-----|
--3---3-x--------3--3-----|--3---3-x--3-----3--3-----|
--2---2-x-----------2-----|--------x-----------2-----|
--------x-----------4-----|--------x-----------------|
--2-----x--2-----------2--|--------x-----------------|
--------x-----------------|--0-----x--0-----------0--|


  Am7                        D
                                               ^
  E.  S E  E  E  E  E  E     E.  S E  E  E  E  E  E
--------x-----0-----x-----|--------x-----5-----5-----|
--1---1-x--------1--x-----|--3---3-x--------3--3-----|
--0---0-x-----------x-----|--2---2-x-----------2-----|
--------x-----------x-----|--0---0-x--0--------------|
--0-----x--0--------x--0--|--------x--------------0--|
--------x-----------x-----|--------x-----------------|


  Em9                        Em9      Em7
  E.  S E  E  E  E  E  E     E.  S E  E   E  E  E  E
--2---2-x-----2-----x-----|--2---2-x--3---3-----x-----|
--3---3-x--------3--x-----|--3---3-x--3------3--x-----|
--------x-----------x-----|--------x------------x-----|
--------x-----------x-----|--------x------------x-----|
--------x-----------x-----|--------x------------x-----|
--0-----x--0--------x--0--|--0-----x--0---------x--0--|

=========.
[Chorus]:|
========='
    Am7                        Bm7               Em
                                                 ^
    E.  S E  E  E  E  E  E     E.  S E  E  E  E  E  E
|---------x-----0-----x-----|--------x-----2-----0------||
|---1---1-x--------1--x-----|--3---3-x--------3--0------||
|*--0---0-x-----------x-----|--2---2-x-----------0-----*||
|*--------x-----------x-----|--------x-----------2-----*||
|---0-----x--0--------x--0--|--2-----x--2--------2------||
|---------x-----------x-----|--------x-----------0--0---||____[ Do Twice ]
  "At your best.."

  Am          Bm             D
  E  S E.  E  E  S E.  E     E  S E  S E  E  E  E  E
-------0-----------2------|-------5-------5-----x-----|
--1-----------3-----------|--3-------3----------x-----|
-----2-----------2--------|-----2------2-----2--x-----|
--------------------------|--0------------------x-----|
--0-----------2--------0--|---------------------x-----|
-----------0--------------|---------------------x--0--|


  GM7                        Csus2      D
  E.  S E  E  E  E  E  E     E.    S E  E  E  E  E  E
--2---2-x-----2-----x-----|--3-----3-x-----5-----x-----|
--3---3-x--------3--x-----|--3-----3-x--------3--x-----|
--0---0-x--0--------x-----|----------x-----------x-----|
--------x-----------x-----|----------x--0--------x-----|
--------x-----------x-----|--3-------x-----------x-----|
--3-----x--3--------x--3--|----------x-----------x--0--|
 "let me know..."

  GM7                        Csus2      D
                                                 ^
  E.  S E  E  E  E  E  E     E.    S E  E  E  E  E  E
--2---2-x-----2-----x-----|--3-----3-x-----5-----5-----|
--3---3-x--------3--x-----|--3-----3-x--------3--3-----|
--0---0-x--0--------x-----|----------x-----------2-----|
--------x-----------x-----|----------x--0--------------|
--------x-----------x-----|--3-------x-----------------|
--3-----x--3--------x--3--|----------x--------------0--|


  GM7                        Csus2      D
  E.  S E  E  E  E  E  E     E.    S E  E  E  E  E  E
--2---2-x-----2-----x-----|--3-----3-x-----5-----x-----|
--3---3-x--------3--x-----|--3-----3-x--------3--x-----|
--0---0-x--0--------x-----|----------x-----------x-----|
--------x-----------x-----|----------x--0--------x-----|
--------x-----------x-----|--3-------x-----------x-----|
--3-----x--3--------x--3--|----------x-----------x--0--|


  GM7                        Am7
  E.  S E  E  E  E  E  E     Q.     E  E  E  E  E
--2---2-x-----2-----x-----|------------0-----x-----|
--3---3-x--------3--x-----|--1------------1--x-----|
--0---0-x--0--------x-----|--0------0--------x-----|
--------x-----------x-----|------------------x-----|
--------x-----------x-----|--0---------------x-----|
--3-----x--3--------x--3--|------------------x--0--|

==========.
[Verse 2]:|
=========='

  Csus2                        Am7
  E.    S E  E  E  E  E  E     E.  S E  E  E  E  E  E
----------x-----3-----x-----|--------x-----0-----x-----|
--3-----3-x--------3--x-----|--1---1-x--------1--x-----|
--5-----5-x-----------x-----|--0---0-x-----------x-----|
----------x-----------x-----|--------x-----------x-----|
--3-------x--3--------x-----|--0-----x--0--------x--0--|
----------x-----------x--0--|--------x-----------x-----|


  Bm7                        Em9
  E.  S E  E  E  E  E  E     E.  S E  E  E  E  E  E
--------x-----2-----x-----|--2---2-x-----2-----x-----|
--3---3-x--------3--x-----|--3---3-x--------3--x-----|
--2---2-x-----------x-----|--------x-----------x-----|
--------x-----------x-----|--------x-----------x-----|
--2-----x--2--------x--2--|--------x-----------x-----|
--------x-----------x-----|--0-----x--0--------x--0--|


  Am7                        D
  E.  S E  E  E  E  E  E     E.  S E  E  E  E  E  E
--------x-----0-----x-----|--------x-----5-----x-----|
--1---1-x--------1--x-----|--3---3-x--------3--x-----|
--0---0-x-----------x-----|--2---2-x-----------x-----|
--------x-----------x-----|--0---0-x--0--------x-----|
--0-----x--0--------x--0--|--------x-----------x--0--|
--------x-----------x-----|--------x-----------x-----|


  Em9                        Em9      Em7
  E.  S E  E  E  E  E  E     E.  S E  E   E  E  E  E
--2---2-x-----2-----x-----|--2---2-x--3---3-----x-----|
--3---3-x--------3--x-----|--3---3-x--3------3--x-----|
--------x-----------x-----|--------x------------x-----|
--------x-----------x-----|--------x------------x-----|
--------x-----------x-----|--------x------------x-----|
--0-----x--0--------x--0--|--0-----x--0---------x--0--|


  Csus2                        Am7
                      ^
  E.    S E  E  E  E  E  E     E.  S E  E  E  E  E  E
----------x-----3-----3-----|--------x-----0-----x-----|
--3-----3-x--------3--3-----|--1---1-x--------1--x-----|
--5-----5-x-----------5-----|--0---0-x-----------x-----|
----------x-----------5-----|--------x-----------x-----|
--3-------x--3--------3-----|--0-----x--0--------x--0--|
----------x--------------0--|--------x-----------x-----|


  Bm7                        Em9
                    ^                          ^
  E.  S E  E  E  E  E  E     E.  S E  E  E  E  E  E
--------x-----2-----2-----|--2---2-x-----2-----2-----|
--3---3-x--------3--3-----|--3---3-x--3-----3--3-----|
--2---2-x-----------2-----|--------x-----------2-----|
--------x-----------4-----|--------x-----------------|
--2-----x--2-----------2--|--------x-----------------|
--------x-----------------|--0-----x--0-----------0--|


  Am7                        D
                                               ^
  E.  S E  E  E  E  E  E     E.  S E  E  E  E  E  E
--------x-----0-----x-----|--------x-----5-----5-----|
--1---1-x--------1--x-----|--3---3-x--------3--3-----|
--0---0-x-----------x-----|--2---2-x-----------2-----|
--------x-----------x-----|--0---0-x--0--------------|
--0-----x--0--------x--0--|--------x--------------0--|
--------x-----------x-----|--------x-----------------|


  Em9                        Em9      Em7
  E.  S E  E  E  E  E  E     E.  S E  E   E  E  E  E
--2---2-x-----2-----x-----|--2---2-x--3---3-----x-----|
--3---3-x--------3--x-----|--3---3-x--3------3--x-----|
--------x-----------x-----|--------x------------x-----|
--------x-----------x-----|--------x------------x-----|
--------x-----------x-----|--------x------------x-----|
--0-----x--0--------x--0--|--0-----x--0---------x--0--|

=========.
[Chorus]:|
========='
    Am7                        Bm7               Em
                                                 ^
    E.  S E  E  E  E  E  E     E.  S E  E  E  E  E  E
|---------x-----0-----x-----|--------x-----2-----0------||
|---1---1-x--------1--x-----|--3---3-x--------3--0------||
|*--0---0-x-----------x-----|--2---2-x-----------0-----*||
|*--------x-----------x-----|--------x-----------2-----*||
|---0-----x--0--------x--0--|--2-----x--2--------2------||
|---------x-----------x-----|--------x-----------0--0---||___[ Do Twice ]


  Am          Bm             D
  E  S E.  E  E  S E.  E     E  S E  S E  E  E  E  E
-------0-----------2------|-------5-------5-----x-----|
--1-----------3-----------|--3-------3----------x-----|
-----2-----------2--------|-----2------2-----2--x-----|
--------------------------|--0------------------x-----|
--0-----------2--------0--|---------------------x-----|
-----------0--------------|---------------------x--0--|


  GM7                        Csus2      D
  E.  S E  E  E  E  E  E     E.    S E  E  E  E  E  E
--2---2-x-----2-----x-----|--3-----3-x-----5-----x-----|
--3---3-x--------3--x-----|--3-----3-x--------3--x-----|
--0---0-x--0--------x-----|----------x-----------x-----|
--------x-----------x-----|----------x--0--------x-----|
--------x-----------x-----|--3-------x-----------x-----|
--3-----x--3--------x--3--|----------x-----------x--0--|


  Em9                        Em9      Em7
                    ^
  E.  S E  E  E  E  E  E     E.  S E  E   E  E  E  E
--2---2-x-----2-----3-----|--2---2-x--3---L-----x-----|
--3---3-x--------3--3-----|--3---3-x--3---L--3--x-----|
--0---0-x--0--------------|--0---0-x--0---L-----x-----|
--------x-----------------|--------x------------x-----|
--------x-----------------|--------x------------x-----|
--0-----x--0-----------0--|--0-----x--0---------x--0--|


  Em9                        Em9      Em7
                    ^
  E.  S E  E  E  E  E  E     E.  S E  E   E  E  E  E
--2---2-x-----2-----2-----|--2---2-x--3---L-----x-----|
--3---3-x--------3--3-----|--3---3-x--3---L--3--x-----|
--0---0-x--0--------0-----|--0---0-x--0---L-----x-----|
--------x-----------------|--------x------------x-----|
--------x-----------------|--------x------------x-----|
--0-----x--0-----------0--|--0-----x--0---------x--0--|

=========.
[Bridge]:|
========='

  Csus2                        Am7
                      ^
  E.    S E  E  E  E  E  E     E.  S E  E  E  E  E  E
----------x-----3-----3-----|--------x-----0-----x-----|
--3-----3-x--------3--3-----|--1---1-x--------1--x-----|
--5-----5-x-----------5-----|--0---0-x-----------x-----|
----------x-----------5-----|--------x-----------x-----|
--3-------x--3--------3-----|--0-----x--0--------x--0--|
----------x--------------0--|--------x-----------x-----|
  "tell me what it is.."

  D                          D
                                               ^
  E.  S E  E  E  E  E  E     E.  S E  E  E  E  E  E
--------x-----5-----x-----|--------x--5--5-----5-----|
--3---3-x--------3--x-----|--3---3-x--3-----3--3-----|
--2---2-x-----------x-----|--2---2-x--2--------2-----|
--0---0-x--0--------x-----|--0---0-x--0--------------|
--------x-----------x--0--|--------x--------------0--|
--------x-----------x-----|--------x-----------------|


  Csus2                        Am7
                      ^
  E.    S E  E  E  E  E  E     E.  S E  E  E  E  E  E
----------x-----3-----3-----|--------x-----0-----x-----|
--3-----3-x--------3--3-----|--1---1-x--------1--x-----|
--5-----5-x-----------5-----|--0---0-x-----------x-----|
----------x-----------5-----|--------x-----------x-----|
--3-------x--3--------3-----|--0-----x--0--------x--0--|
----------x--------------0--|--------x-----------x-----|

======================.
[Build-up and Chorus]:|
======================'

  D                          D                     Am7
                             ^                                       ^
  E.  S E  E  E  E  E  E     W                     E.  S E  E  E  E  E  E
--------x-----5-----x-----|--5----------------||---------x-----0-----0-----|
--3---3-x--------3--x-----|--3----------------||---1---1-x--------1--1-----|
--2---2-x-----------x-----|--2----------------||*--0---0-x-----------2-----|
--0---0-x--0--------x-----|--0----------------||*--------x-----------------|
--------x-----------x--0--|-------------------||---0-----x--0-----------0--|
--------x-----------x-----|-------------------||---------x-----------------|


  Bm7               Em         Am          Bm
                    ^
  E.  S E  E  E  E  E  E       E  S E.  E  E  S E.  E
--------x-----2-----0------||-------0-----------2------|
--3---3-x--------3--0------||--1-----------3-----------|
--2---2-x-----------0-----*||-----2-----------2--------|
--------x-----------2-----*||--------------------------|
--2-----x--2--------2------||--0-----------2--------0--|
--------x-----------0--0---||-----------0--------------|


  D                             GM7
  E  S E  S E  E  E  E  E       E.  S E  E  E  E  E  E
-------5-------5-----x-----||---2---2-x-----2-----x-----|
--3-------3----------x-----||---3---3-x--------3--x-----|
-----2------2-----2--x-----||*--0---0-x--0--------x-----|
--0------------------x-----||*--------x-----------x-----|
---------------------x-----||---------x-----------x-----|
---------------------x--0--||---3-----x--3--------x--3--|


  Csus2      D                 G7M
                      ^                          ^
  E.    S E  E  E  E  E  E     E.  S E  E  E  E  E  E
--3-----3-x-----5-----5-----|--2---2-x-----2-----2-----|
--3-----3-x--------3--3-----|--3---3-x--------3--3-----|
----------x-----------2-----|--0---0-x--0--------------|
----------x--0--------------|--------x-----------------|
--3-------x-----------------|--------x-----------------|
----------x--------------0--|--3-----x--3-----------3--|


  Csus2      D                 G7M
                      ^
  E.    S E  E  E  E  E  E     E.  S E  E  E  E  E  E
--3-----3-x-----5-----5-----|--2---2-x-----2-----x-----|
--3-----3-x--------3--3-----|--3---3-x--------3--x-----|
----------x-----------2-----|--0---0-x--0--------x-----|
----------x--0--------------|--------x-----------x-----|
--3-------x-----------------|--------x-----------x-----|
----------x--------------0--|--3-----x--3--------x--3--|


  Csus2      D                   G6add9
                      ^
  E.    S E  E  E  E  E  E       S      S S S S S. S. S. Q.     T
--3-----3-x-----5-----5------||-----------------0-----------------|
--3-----3-x--------3--3------||-------------0------0--------------|
----------x-----------2-----*||---------------0-------0-----------|
----------x--0--------0-----*||-----------7-----------------------|
--3-------x------------------||---------5-------------------------|
----------x--------------0---||--3-----------------------3------L-|


  W
-------------------||
-------------------||
-------------------||
-------------------||
-------------------||
--L----------------||




Duration Legend
---------------
W - whole
H - half
Q - quarter
E - 8th
S - 16th
comments
We did not receive enough feedback on this tab! Please rate:
print report bad tab
1 2 3 4 5
I want to post or [tab]
guest
You may want to rate the tab now too:
select rating
Please do not post tabs as comments. Select "correction" instead!