Oops, an error
Loading. Please wait.

Awit Ng Saya Tab

by MYMP
3,797 views 6 this week
1 commentread comment
1 2 3 4 5
accurate
x 7
add to favorites
launch autoscroll
font size
0
reset
how to read this tab
guitar tuner
Tab Pro tools
  • play this tab
  • loop segment
  • change instrument
  • show fretboard
  • metronome
×
Best way to learn
"Awit Ng Saya"
Autoscroll
slow
fast
+/-
esc
set tempo
stop
Contributor
Awit ng Saya
MYMP
Transcribed by: Walter Michael De la Cruz - SLU Baguio City - 09224012464



       B                     F#                    C#m7
E|---2-----2--2-------2-----2---2-----4------4---4-----4---4--4---------|
B|---2--t--2--2--t----2--t--2---2--t---5--t---5---5--t--5-t-5--5-t------|
G|---4--a--4--4--a---3--a--3---3--a---4--a--4---4--a--4-a-4--4-a--------|
D|---4--p--4--4--p---4--p--4---4--p---6--p--6---6--p--6-p-6--5-p--------|
A|-2---------2-------4-----4---4-----4---------4------4------4----------|
E|------------------2---------2-----------------------------------------|

   Dahil sayo natagpuan ang kasiyahang inaasam

    B                       F#                    C#m7
E|---2-----2--2-------2-----2---2-----4------4---4-----4---4--4---------|
B|---2--t--2--2--t----2--t--2---2--t---5--t---5---5--t--5-t-5--5-t------|
G|---4--a--4--4--a---3--a--3---3--a---4--a--4---4--a--4-a-4--4-a--------|
D|---4--p--4--4--p---4--p--4---4--p---6--p--6---6--p--6-p-6--5-p--------|
A|-2---------2-------4-----4---4-----4---------4------4------4----------|
E|------------------2---------2-----------------------------------------|

    binigay mo sa akin ang dati laging pinapangarap

      E              D#m7              C#m7            F#
E|--7---7--7-----6----8---8-----4---4---4-----2---2---2-------|
B|--7-t-7--7-t---7--t-7---7-t---5--t-5---5-t---2-t-2---2------|
G|--9-a-9--9-a--6--a-6---6-a---4--a-4--4-a---3-a-3---3--------|
D|--9-p-9--9-p--8--p-8---8-p---6--p-6--6-p---4-p-4---4--------|
A|-7------7----6--------6-----4-------4-------4---4---4-------|
E|-------------------------------------------2-------2--------|

     ipinadama ang yakap na walang kasing saya

      E              D#m7              C#m7            F#
E|--7---7--7-----6----8---8-----4---4---4-----2---2---2-------|
B|--7-t-7--7-t---7--t-7---7-t---5--t-5---5-t---2-t-2---2------|
G|--9-a-9--9-a--6--a-6---6-a---4--a-4--4-a---3-a-3---3--------|
D|--9-p-9--9-p--8--p-8---8-p---6--p-6--6-p---4-p-4---4--------|
A|-7------7----6--------6-----4-------4-------4---4---4-------|
E|-------------------------------------------2-------2--------|

    hayaan mo akong umawit ako lamang'y nagpapasalamat

   B                     F#                    C#m7
E|---2-----2--2-------2-----2---2-----4------4---4-----4---4--4---------|
B|---2--t--2--2--t----2--t--2---2--t---5--t---5---5--t--5-t-5--5-t------|
G|---4--a--4--4--a---3--a--3---3--a---4--a--4---4--a--4-a-4--4-a--------|
D|---4--p--4--4--p---4--p--4---4--p---6--p--6---6--p--6-p-6--5-p--------|
A|-2---------2-------4-----4---4-----4---------4------4------4----------|
E|------------------2---------2-----------------------------------------|

    Tulay ng maykapal inuugnay ang atng pgmamahalan

   B                     F#                    C#m7
E|---2-----2--2-------2-----2---2-----4------4---4-----4---4--4---------|
B|---2--t--2--2--t----2--t--2---2--t---5--t---5---5--t--5-t-5--5-t------|
G|---4--a--4--4--a---3--a--3---3--a---4--a--4---4--a--4-a-4--4-a--------|
D|---4--p--4--4--p---4--p--4---4--p---6--p--6---6--p--6-p-6--5-p--------|
A|-2---------2-------4-----4---4-----4---------4------4------4----------|
E|------------------2---------2-----------------------------------------|

    Gawa ng lakas na di guguho

      E              D#m7              C#m7            F#
E|--7---7--7-----6----8---8-----4---4---4-----2---2---2-------|
B|--7-t-7--7-t---7--t-7---7-t---5--t-5---5-t---2-t-2---2------|
G|--9-a-9--9-a--6--a-6---6-a---4--a-4--4-a---3-a-3---3--------|
D|--9-p-9--9-p--8--p-8---8-p---6--p-6--6-p---4-p-4---4--------|
A|-7------7----6--------6-----4-------4-------4---4---4-------|
E|-------------------------------------------2-------2--------|

 Sa minsang pagsubok na napagdadaanan ng buhay
   B                     F#                    C#m7
E|---2-----2--2-------2-----2---2-----4------4---4-----4---4--4---------|
B|---2--t--2--2--t----2--t--2---2--t---5--t---5---5--t--5-t-5--5-t------|
G|---4--a--4--4--a---3--a--3---3--a---4--a--4---4--a--4-a-4--4-a--------|
D|---4--p--4--4--p---4--p--4---4--p---6--p--6---6--p--6-p-6--5-p--------|
A|-2---------2-------4-----4---4-----4---------4------4------4----------|
E|------------------2---------2-----------------------------------------|

ikaw ang pag ibig na aming pinangarap at hiniling.

   B                     F#                    C#m7
E|---2-----2--2-------2-----2---2-----4------4---4-----4---4--4---------|
B|---2--t--2--2--t----2--t--2---2--t---5--t---5---5--t--5-t-5--5-t------|
G|---4--a--4--4--a---3--a--3---3--a---4--a--4---4--a--4-a-4--4-a--------|
D|---4--p--4--4--p---4--p--4---4--p---6--p--6---6--p--6-p-6--5-p--------|
A|-2---------2-------4-----4---4-----4---------4------4------4----------|
E|------------------2---------2-----------------------------------------|

panghabambuhay na ito dati lagi pnapangarap


      E              D#m7              C#m7            F#
E|--7---7--7-----6----8---8-----4---4---4-----2---2---2-------|
B|--7-t-7--7-t---7--t-7---7-t---5--t-5---5-t---2-t-2---2------|
G|--9-a-9--9-a--6--a-6---6-a---4--a-4--4-a---3-a-3---3--------|
D|--9-p-9--9-p--8--p-8---8-p---6--p-6--6-p---4-p-4---4--------|
A|-7------7----6--------6-----4-------4-------4---4---4-------|
E|-------------------------------------------2-------2--------|
walang pagdududa sa yakap na walng kasing saya

      E              D#m7              C#m7            F#
E|--7---7--7-----6----8---8-----4---4---4-----2---2---2-------|
B|--7-t-7--7-t---7--t-7---7-t---5--t-5---5-t---2-t-2---2------|
G|--9-a-9--9-a--6--a-6---6-a---4--a-4--4-a---3-a-3---3--------|
D|--9-p-9--9-p--8--p-8---8-p---6--p-6--6-p---4-p-4---4--------|
A|-7------7----6--------6-----4-------4-------4---4---4-------|
E|-------------------------------------------2-------2--------|
hayaan mo akong umawit ako lmng ngpapasalmt


Comments,questions,?? send me a message in friendster at Walterfdelacruz@yahoo.com
comments
print report bad tab
1 comment total.
0 reply
jayjay15 wrote on March 10 2007, 11:40 pm

my kulang pa po..

I want to post or [tab]
guest
You may want to rate the tab now too:
select rating
Please do not post tabs as comments. Select "correction" instead!