Oops, an error
Loading. Please wait.

Baby Now That Ive Found You Tab

version 2
version 2

Whole song

Interactive

by MYMP
8,615 views 3 this week
no commentswrite comment
1 2 3 4 5
x 4
add to favorites
launch autoscroll
font size
0
reset
how to read this tab
guitar tuner
Autoscroll
slow
fast
+/-
esc
set tempo
stop
Help us to improve Ultimate-Guitar.com Take our survey!
×
Author
Difficulty
intermediate
Title:   Baby now that I’ve found you
Artist:  MYMP
Album:   Their performance live!!astig
Tuning:  Standard
Tabbed by : joms >>nEw_sKin47@yahoo.com
Im 95% sure about this...hmm,my mga version na iba and much
better but this one is unique...try nyo astig toh!
                
Intro:
e------0-2-0--|------0-2-0--|------0-2-0--|------0-2-0--|
B----0--------|----0--------|----0--------|----0--------|
G-------------|-------------|-------------|-------------|
D--2----------|--0----------|-------------|-------------|
A-------------|-------------|--4----------|--3----------|
E-------------|-------------|-------------|-------------|

e------0-2-0--|--------2-2--|--------0-0--|--2----2-----|
B----0--------|------2---2--|------2---2--|--5------5---|
G-------------|----2-----2--|----2-----2--|--2----------|
D--2----------|-------------|----------2--|--4----------|
A-------------|-------------|--0-------0--|--2--2-------|
E-------------|--2----------|-------------|-------------|

Chorus:
e------0-2-0--|------0-2-0--|------0-2-0--|------0-2-0--|
B----0--------|----0--------|----0--------|----0--------|
G-------------|-------------|-------------|-------------|
D--2----------|--0----------|-------------|-------------|
A-------------|-------------|--4----------|--3----------|
E-------------|-------------|-------------|-------------|
  Baby now that ive found you...

e------0-2-0--|--------2-2--|--------0-0--|------2-----|
B----0--------|------2---2--|------2---2--|--------5---|
G-------------|----2-----2--|----2-----2--|--2-2-------|
D--2----------|-------------|----------2--|--4---------|
A-------------|-------------|--0-------0--|--2---------|
E-------------|--2----------|-------------|------------|
  I need you so...

e------0-2-0--|------0-2-0--|------0-2-0--|------0-2-0--|
B----0--------|----0--------|----0--------|----0--------|
G-------------|-------------|-------------|-------------|
D--2----------|--0----------|-------------|-------------|
A-------------|-------------|--4----------|--3----------|
E-------------|-------------|-------------|-------------|
  Baby now that ive found you...

e------0-2-0--|--------2-2--|--------0-0--|------2-----|
B----0--------|------2---2--|------2---2--|--------5---|
G-------------|----2-----2--|----2-----2--|--2-2-------|
D--2----------|-------------|----------2--|--4---------|
A-------------|-------------|--0-------0--|--2---------|
E-------------|--2----------|-------------|------------|
  I need you so...

e------0-2-0--|--------------0--------|
B----0--------|------------3----------|
G-------------|----------2------------|
D--2----------|--------0--------------|
A-------------|--2--4-----------0--2--|
E-------------|-----------------------|
  no more...

Verse:
e------0-2-0--|--------2-2--|--------0-0--|------------2----|
B----0--------|------2---2--|------2---2--|--------5-----5--|
G-------------|----2-----2--|----2-----2--|------2----------|
D--2----------|-------------|----------2--|----4------------|
A-------------|-------------|--0-------0--|--2-------2------|
E-------------|--2----------|-------------|-----------------|
  Baby, baby, at first we met...

e------0-2-0--|--------2-2--|--------0-0--|-----------------|
B----0--------|------2---2--|------2---2--|--------5-----4--|
G-------------|----2-----2--|----2-----2--|------2----------|
D--2----------|-------------|----------2--|----4-------4----|
A-------------|-------------|--0-------0--|--2-------2------|
E-------------|--2----------|-------------|-----------------|
  That you were someone...
 
e------------4----|-----------4--|
B--------6-----6--|--------4--4--|
G------6----------|------5----5--|
D----6------------|----6---------|
A--4-------4------|--------------|
E-----------------|--4-----------|
  Spent my life looking...

e-------4--|--------4--|------------4----|
B-------6--|--------4--|--------6-----6--|
G-------6--|--------5--|------6----------|
D----6-----|----6------|----6------------|
A--4-------|-----------|--4-------4------|
E----------|--4--------|-----------------|
  to make me feel like new...

e------------2----|------------2----|-----------0--|----------2----|
B--------4-----4--|--------------2--|--------2--2--|--4---------4--|
G------4----------|--------2--------|------2-------|-------2-------|
D----4------------|------4----------|----2---------|-----2---------|
A--2-------2------|----4------------|--0-----------|--2------------|
E-----------------|--2-------2------|--------------|---------------|
  Now u tell me that u want to leave me...

e------0-2-0--|------0-2-0--|------0-2-0--|------0-2-0--|
B----0--------|----0--------|----0--------|----0--------|
G-------------|-------------|-------------|-------------|
D--2----------|--0----------|-------------|-------------|
A-------------|-------------|--4----------|--3----------|
E-------------|-------------|-------------|-------------|
  you.........

e------0-2-0--|--------2-2--|--------0-0--|------2-----|
B----0--------|------2---2--|------2---2--|--------5---|
G-------------|----2-----2--|----2-----2--|--2-2-------|
D--2----------|-------------|----------2--|--4---------|
A-------------|-------------|--0-------0--|--2---------|
E-------------|--2----------|-------------|------------|

Chorus:
e------0-2-0--|------0-2-0--|------0-2-0--|------0-2-0--|
B----0--------|----0--------|----0--------|----0--------|
G-------------|-------------|-------------|-------------|
D--2----------|--0----------|-------------|-------------|
A-------------|-------------|--4----------|--3----------|
E-------------|-------------|-------------|-------------|
  Baby now that ive found you...

e------0-2-0--|--------2-2--|--------0-0--|------2-----|
B----0--------|------2---2--|------2---2--|--------5---|
G-------------|----2-----2--|----2-----2--|--2-2-------|
D--2----------|-------------|----------2--|--4---------|
A-------------|-------------|--0-------0--|--2---------|
E-------------|--2----------|-------------|------------|
  I need you so...

e------0-2-0--|------0-2-0--|------0-2-0--|------0-2-0--|
B----0--------|----0--------|----0--------|----0--------|
G-------------|-------------|-------------|-------------|
D--2----------|--0----------|-------------|-------------|
A-------------|-------------|--4----------|--3----------|
E-------------|-------------|-------------|-------------|
  Baby now that ive found you...

e------0-2-0--|--------2-2--|--------0-0--|------2-----|
B----0--------|------2---2--|------2---2--|--------5---|
G-------------|----2-----2--|----2-----2--|--2-2-------|
D--2----------|-------------|----------2--|--4---------|
A-------------|-------------|--0-------0--|--2---------|
E-------------|--2----------|-------------|------------|
  I need you so...

e------0-2-0--|--------------0--------|
B----0--------|------------3----------|
G-------------|----------2------------|
D--2----------|--------0--------------|
A-------------|--2--4-----------0--2--|
E-------------|-----------------------|
  no more...

Verse:
e------0-2-0--|--------2-2--|--------0-0--|------------2----|
B----0--------|------2---2--|------2---2--|--------5-----5--|
G-------------|----2-----2--|----2-----2--|------2----------|
D--2----------|-------------|----------2--|----4------------|
A-------------|-------------|--0-------0--|--2-------2------|
E-------------|--2----------|-------------|-----------------|
  Baby, baby, at first we met...

e------0-2-0--|--------2-2--|--------0-0--|-----------------|
B----0--------|------2---2--|------2---2--|--------5-----4--|
G-------------|----2-----2--|----2-----2--|------2----------|
D--2----------|-------------|----------2--|----4-------4----|
A-------------|-------------|--0-------0--|--2-------2------|
E-------------|--2----------|-------------|-----------------|
  That you were someone...
 
e------------4----|-----------4--|
B--------6-----6--|--------4--4--|
G------6----------|------5----5--|
D----6------------|----6---------|
A--4-------4------|--------------|
E-----------------|--4-----------|
  Spent my life looking...

e-------4--|--------4--|-------------| |------------|
B-------6--|--------4--|-------6-----| |------------|
G-------6--|--------5--|-------6-----| |------------|
D----6-----|----6------|----6--------| |------------|
A--4-------|-----------|--4-------4--| |--4-5—-2-4--|
E----------|--4--------|-------------| |------------|
  to make me feel like new...

e------------2----|------------2----|-----------0--|----------2----|
B--------4-----4--|--------------2--|--------2--2--|--4---------4--|
G------4----------|--------2--------|------2-------|-------2-------|
D----4------------|------4----------|----2---------|-----2---------|
A--2-------2------|----4------------|--0-----------|--2------------|
E-----------------|--2-------2------|--------------|---------------|
  Now u tell me that u want to leave me...

e------0-2-0--|------0-2-0--|------0-2-0--|------0-2-0--|
B----0--------|----0--------|----0--------|----0--------|
G-------------|-------------|-------------|-------------| 
D--2----------|--0----------|-------------|-------------|
A-------------|-------------|--4----------|--3----------|
E-------------|-------------|-------------|-------------|
  you.........

e------0-2-0--|------0-2-0--|------0-2-0--|------0-2-0--|
B----0--------|----0--------|----0--------|----0--------|
G-------------|-------------|-------------|-------------| 
D--2----------|--0----------|-------------|-------------|
A-------------|-------------|--4----------|--3----------|
E-------------|-------------|-------------|-------------|
  now that I’ve found you...

e------0-2-0--|--------2-2--|--------0-0--|--2----2-----|
B----0--------|------2---2--|------2---2--|--5------5---|
G-------------|----2-----2--|----2-----2--|--2----------|
D--2----------|-------------|----------2--|--4----------|
A-------------|-------------|--0-------0--|--2--2-------|
E-------------|--2----------|-------------|-------------|
  I need you so...

Chorus:
e------0-2-0--|------0-2-0--|------0-2-0--|------0-2-0--|
B----0--------|----0--------|----0--------|----0--------|
G-------------|-------------|-------------|-------------|
D--2----------|--0----------|-------------|-------------|
A-------------|-------------|--4----------|--3----------|
E-------------|-------------|-------------|-------------|
  Baby now that ive found you...

e------0-2-0--|--------2-2--|--------0-0--|-----------2--|
B----0--------|------2---2--|------2---2--|--------5--5--|
G-------------|----2-----2--|----2-----2--|------2-------|
D--2----------|-------------|----------2--|----4---------|
A-------------|-------------|--0-------0--|--2-----------|
E-------------|--2----------|-------------|--------------|
  I need you so...

e------0-2-0--|--------------0--------|
B----0--------|------------3----------|
G-------------|----------2------------|
D--2----------|--------0--------------|
A-------------|--2--4-----------0--2--|
E-------------|-----------------------|
  no more...

e------0-2-0--|--------------0--------|
B----0--------|------------3----------|
G-------------|----------2------------|
D--2----------|--------0--------------|
A-------------|--2--4-----------0--2--|
E-------------|-----------------------|
  Ooh.. ooh..

e------0-2-0--|--------------0--------|
B----0--------|------------3----------|
G-------------|----------2------------|
D--2----------|--------0--------------|
A-------------|--2--4-----------0--2--|
E-------------|-----------------------|

e------0-2-0--|--------------0--------|
B----0--------|------------3----------|
G-------------|----------2------------|
D--2----------|--------0--------------|
A-------------|--2--4-----------0--2--|
E-------------|-----------------------|

e---2----2-0---2-0---2-0----|
B---0--0-----0-----0-----0--|
G---1-----------------------|
D---2-----------------------|
A---2-----------------------|
E---0-----------------------|

END...

Suggest correction
comments
print report bad tab
guest
You may want to rate the tab now too:
select rating
Wanna post a correction for this tab? Suggest correction