Oops, an error
Loading. Please wait.

Beauty And Madness Tab

version 2
version 2

Whole song

by MYMP
10,928 views 9 this week
no commentswrite comment
1 2 3 4 5
accurate
x 4
add to favorites
launch autoscroll
font size
0
reset
how to read this tab
guitar tuner
Tab Pro tools
  • play this tab
  • loop segment
  • change instrument
  • show fretboard
  • metronome
×
Best way to learn
"Beauty And Madness"
Autoscroll
slow
fast
+/-
esc
set tempo
stop
Song: Beauty and Madness
Artist: M.Y.M.P.
Tuning: Standard -capo in 1st fret
Tabbed by john Tristan ilingan

Dedicated ko to sa lahat ng mahal ko... 
Ito ang pangalawang tab na ginawa ko...
pasensya na kung hindi pa masyadong gaya.
Mmm sana nlng magustuhan nyo...


Intro:
                            
e|---------0--------0-----tap----5---5------|
B|-------0--------0---0------------5--------|
G|-----2--------2-------2------7-------7----|
D|-------------------------------------7----|
A|---4--------4--------------0-5---4---5----|
E|------------------------------------------|


e|---------0-----tap------------------------0--------------0------|
B|-------0---0---------5--3---------------0-------0----------0----|
G|-----2-------2-------2--2---------1-1h2--------1-------1-----1--|
D|--------------------------------2-------------2------2----------|
A|---4---------------0-2--2-----2--------------2------------------|
E|----------------------------0-----------------------------------|

Verse:

e|---------0--------0-----tap----5---5------|
B|-------0--------0---0------------5--------|
G|-----2--------2-------2------7-------7----|
D|-------------------------------------7----|
A|---4--------4--------------0-5---4---5----|
E|------------------------------------------|


e|---------0-----tap------------------------0--------------0------|
B|-------0---0---------5--3---------------0-------0----------0----|
G|-----2-------2-------2--2---------1-1h2--------1-------1-----1--|
D|--------------------------------2-------------2------2----------|
A|---4---------------0-2--2-----2--------------2------------------|
E|----------------------------0-----------------------------------|



e|---------0--------0-----tap----5---5------|
B|-------0--------0---0------------5--------|
G|-----2--------2-------2------7-------7----|
D|-------------------------------------7----|
A|---4--------4--------------0-5---4---5----|
E|------------------------------------------|


e|---------0-----tap------------------------0--------------0------|
B|-------0---0---------5--3---------------0-------0----------0----|
G|-----2-------2-------2--2---------1-1h2--------1-------1-----1--|
D|--------------------------------2-------------2------2----------|
A|---4---------------0-2--2-----2--------------2------------------|
E|----------------------------0-----------------------------------|


Refrain:

e|-----5---5---------------------------------0-------5----- tap------tap--|
B|---7---5-----------------------------------0-----7------5--------3------|
G|-----------7--6--------1h2p1-------1h2-1---1-----------4--------2-------|
D|--------------7------2-------2---2-2---2--------------6--------4--------|
A|---5---4---5-------2-----------2---2---2-2—---0-5----4--------2---------|
E|--------------5--0------------------------------------------------------|

e|----------------0--------------0-----tap---|
B|------------------0----------0---0---------|
G|--------1-----2------------2-------2-------|
D|------2-----2------------------------------|
A|----2-----0----------0-2-4-----------------|
E|--0----------------------------------------|

e|------5---5---5------------------------------------0--------|
B|----7---5-------5-----------0-----------0--------2-2-----2--|
G|------------7---6---1h2-1----1—-1h2-1----1-----1---1-----1--|
D|--------------------2---2-----2-2---2-----2--0-----0--------|
A|--0-5---4---5-------2-----2-----2---2-2------------------2--|
E|----------------5-------------------------------------------|

e|--0---0---0-tap-----5-tap------tap------tap------------0---------|
B|--0---0---0-------5----------5--------3----------------------0---|
G|----2---2-------------------4--------2-------------1h2------1----|
D|---------------------------6--------4------------2---------2-----|
A|--4-------------0-5-------4--------2-----------2----------2------|
E|---------------------------------------------0-------------------|


Verse:

e|---------0--------0-----tap----5---5------|
B|-------0--------0---0------------5--------|
G|-----2--------2-------2------7-------7----|
D|-------------------------------------7----|
A|---4--------4--------------0-5---4---5----|
E|------------------------------------------|


e|---------0-----tap------------------------0--------------0------|
B|-------0---0---------5--3---------------0-------0----------0----|
G|-----2-------2-------2--2---------1-1h2--------1-------1-----1--|
D|--------------------------------2-------------2------2----------|
A|---4---------------0-2--2-----2--------------2------------------|
E|----------------------------0-----------------------------------|



e|---------0--------0-----tap----5---5------|
B|-------0--------0---0------------5--------|
G|-----2--------2-------2------7-------7----|
D|-------------------------------------7----|
A|---4--------4--------------0-5---4---5----|
E|------------------------------------------|


e|---------0-----tap------------------------0--------------0------|
B|-------0---0---------5--3---------------0-------0----------0----|
G|-----2-------2-------2--2---------1-1h2--------1-------1-----1--|
D|--------------------------------2-------------2------2----------|
A|---4---------------0-2--2-----2--------------2------------------|
E|----------------------------0-----------------------------------|
Refrain:

e|------5---5---5---------------------------tap-----5-------tap------tap--|
B|----7---5-------5-----------0-----------0-------7-------5--------3------|
G|------------7---6---1h2-1----1—-1h2-1---1--------------4--------2-------|
D|--------------------2---2-----2-2---2-----------------6--------4--------|
A|----5---4---5-------2-----2-----2---2-2-------0-5----4--------2---------|
E|----------------5-------------------------------------------------------|


e|------------------0--------------0-tap-0-tap--|
B|----------------0---0----------0-0-----0------|
G|--------1-----2--------------2----------------|
D|------2-----2---------------------------------|
A|----2-----0------------0-2-4-----------4------|
E|--0-------------------------------------------|

e|------5---5-----------------------------------tap-------0-----------|
B|----7---5-------5-------------------------------------3-3---3-3-----|
G|------------7---6--------1h2p1—------1h2-1---1------2---2---2-2-----|
D|-----------------------2-------2---2-2---1---2----0-----0-----------|
A|--0-5---4---5--------2-----------2---2-----2----------------2-------|
E|----------------5--0------------------------------------------------|

Adlib:

e|----------tap---tap-----5---tap---tap--------tap---tap--------------tap-|
B|----5---5-----5-----------7-----7----------7-----7---------------0------|
G|----4---4-----4-----------------7----------6-----6-------------1--------|
D|------7---------------5------------------9-------------------2----------|
A|--0-4--------------0-5---------------0-6---------6-----6---2------------|
E|---------------------------------------------------------0--------------|

e|-------------------------------------------0--------0-tap-0-------5-tap-|
B|-------------------------------------------0--------0-----0----7--------|
G|-----------------------------------------2--------2---------------------|
D|----x--x-x-------x--x-x-x----x-x---x---2--------2-----------------------|
A|----x--x-4h5p4---x--x-x—4h5--x-x---x-------------------------0-5--------|
E|--0-5--5-------0-5--4-5------3—3h5-3-2--------0-------------------------|
    < --------strum this part--------> 

e|---------0--------------------|
B|---------0--------------------|
G|--1h2-1--------1--------------|
D|--2---2-------2---------------|
A|-------------2----------------|
E|--0-----0---0-----0-4h5--6-5--|

Refrain:

e|------5---5---5---------------------------tap-----5-------tap------tap--|
B|----7---5-------5-----------0-----------0-------7-------5--------3------|
G|------------7---6---1h2-1----1—-1h2-1---1--------------4--------2-------|
D|--------------------2---2-----2-2---2-----------------6--------4--------|
A|----5---4---5-------2-----2-----2---2-2-------0-5----4--------2---------|
E|----------------5-------------------------------------------------------|


e|----------------0---------------0-----tap---|
B|------------------0-----------0---0---------|
G|--------1-----2-----2-------2-------2-------|
D|------2-----2-------------------------------|
A|----2-----0-----------0-2-4-----------------|
E|--0-----------------------------------------|


e|------5---5----------------------------------------0--------|
B|----7---5-------5-----------0-----------0--------2-2-----2--|
G|------------7---6---1h2-1----1—-1h2-1----1-----1---1-----1--|
D|--------------------2---2-----2-2---2-----2--0-----0--------|
A|--0-5---4---5-------2-----2-----2---2-2------------------2--|
E|----------------5-------------------------------------------|


e|--0---0---0-tap-----5-tap------tap------tap----------------0-------|
B|--0---0---0-------7----------5--------3--------------------0-------|
G|----2---2-------------------4--------2-------1h2-2-----1--------2--|
D|---------------------------6--------4--------2---2-2---2-2------2--|
A|--4-------------0-5-------4--------2---------2-----2---2--------0--|
E|---------------------------------------------0---------0-----0-----|

That's all.. kung my comment,, txt nlng sa ako in this no. 09152763936.
Paki rate nlng po!!
comments
print report bad tab
I want to post or [tab]
guest
You may want to rate the tab now too:
select rating
Please do not post tabs as comments. Select "correction" instead!