Oops, an error
Loading. Please wait.

Constantly Tab

version 1
version 1

Whole song

Interactive

by MYMP
32,508 views 36 this week
1 commentread comment
1 2 3 4 5
excellent!
x 13
add to favorites
launch autoscroll
font size
0
reset
how to read this tab
guitar tuner
Autoscroll
slow
fast
+/-
esc
set tempo
stop
Help us to improve Ultimate-Guitar.com Take our survey!
×
Author
Song         : Constantly
Artist       : MYMP
Album        : VErsions

Transcribe by: Walter Michael De la Cruz - SLU Baguio City - 09224012464
              (Walterfdelacruz@yahoo.com)


Date of Tab  : May 24, 2005

Legend:
+ (Harmonic)

Intro:


E|------------3--*-------3--*---3--3---3--3-------3---------1---------1----|
B|------------5--*-------5--*---3--3---3--3-------3---t--1--1---------1-t--|
G|------------4--*-------4--*---4--4---4--4-------4---a-----------------a--|
D|---------------*----------*-------------------------p-----------------p--|
A|--3+--3+--3----*----------*---2------2------2+--2------1-----------------|
E|---------------*--3-3-----*----------------------------------1----1------|


E|-------0------0----------------------|
B|---1------t---1----------------------|
G|----------a--------------------------|
D|----------p--------------------------|
A|---0---------------------------------|
E|--------------3----------------------|

Verse 1:

E|-----3-----------------------------------------------------------|
B|--0------0---------------------3-----t---------------------------|
G|-----------------------------0-------a---------------------------|
D|-------------------------------------p---------------------------|
A|-----------------0---2-------------------------------------------|
E|--3---------3-------------3--------------------------------------|
    I       knew  it  was there          though I tried 

E|-----------3-----------------------------------------------------|
B|--------------------------------------1--------1-----------------|
G|------4-------------------------------2---t----2-----t-----------|
D|--------------------------------------3---a----3-----a-----------|
A|------3-----------------------------------p----------p-----------|
E|--------------------------------------1--------1-----------------|
    To hide it    but the feeling just keep on shining 

E|-----3-----------------------------------------------------------|
B|--0------0---------------------3-----t---------------------------|
G|-----------------------------0-------a---------------------------|
D|-------------------------------------p---------------------------|
A|-----------------0---2-------------------------------------------|
E|--3---------3-------------3--------------------------------------|
  through   Haven't know you that long 

E|---------------3-------------------------------------------------|
B|--------------------------------------1--------1-----------------|
G|------------4-------------------------2---t----2-----t-----------|
D|--------------------------------------3---a----3-----a-----------|
A|------------3-----------------------------p----------p-----------|
E|--------------------------------------1--------1-----------------|
So I try to deny it  But the feeling was much too much too strong

Refrain:
E|----------------------------------------------------------------|
B|----8-----8-----------6---8---8---8-----------------------------|
G|----9-----9-----------7---7---7---7-----------------------------|
D|----9-----9-----------8---8---8---8-----------------------------|
A|--7-----7-------------6---6---6---6-----------------------------|
E|----------------------------------------------------------------|
         Could this be love    Deep down 

E|--------0-------------------------3--------------3--------------|
B|--------2-----------------3-------3--------------1--------------|
G|--------0-----------------2----------------------2--------------|
D|--------1----------------------------------------0--------------|
A|--------0-----------------2-------3-----------------------------|
E|----------------------------------------------------------------|
        Inside Tearing me apart  I feel it in my heart


Chorus:
E|------------3--*-------3--*---3--3---3--3-------3---------1---------1----|
B|------------5--*-------5--*---3--3---3--3-------3---t--1--1---------1-t--|
G|------------4--*-------4--*---4--4---4--4-------4---a-----------------a--|
D|---------------*----------*-------------------------p-----------------p--|
A|----------3----*----------*---2------2------2+--2------1-----------------|
E|---------------*--3-3-----*----------------------------------1----1------|
   Constantly,     you're on my mind    Thinking about you all 


E|---0--0--0-0-----------------------|
B|---1--1--1-1-----------------------|
G|-----------------------------------|
D|-----------------------------------|
A|---0-------0-----------------------|
E|-----------------------------------|
    the time

E|------------3--*-------3--*---3--3---3--3-------3---------1---------1----|
B|------------5--*-------5--*---3--3---3--3-------3---t--1--1---------1-t--|
G|------------4--*-------4--*---4--4---4--4-------4---a-----------------a--|
D|---------------*----------*-------------------------p-----------------p--|
A|----------3----*----------*---2------2------2+--2------1-----------------|
E|---------------*--3-3-----*----------------------------------1---1-------|
I can't sleep no matter what I do---------              I just keep on 


E|---0--0--0-0-----------------------|
B|---1--1--1-1-----------------------|
G|-----------------------------------|
D|-----------------------------------|
A|---0-------0-----------------------|
E|-----------------------------------|
  thinkin bout you


Verse 2 The same in Verse 1

Why do I feel this way
When I know you have someone
That you're seeing each and every day
Should I play this game
Of just being your friend
When I know that's not where I want it to end


Refrain 2:The same in refrain

How could this be wrong
When the feeling's so strong
Tearing me apart
I feel it in my heart

Chorus:

E|------------3--*-------3--*---3--3---3--3-------3---------1---------1----|
B|------------5--*-------5--*---3--3---3--3-------3---t--1--1---------1-t--|
G|------------4--*-------4--*---4--4---4--4-------4---a-----------------a--|
D|---------------*----------*-------------------------p-----------------p--|
A|----------3----*----------*---2------2------2+--2------1-----------------|
E|---------------*--3-3-----*----------------------------------1----1------|
   Constantly,     you're on my mind    Thinking about you all 


E|---0--0--0-0-----------------------|
B|---1--1--1-1-----------------------|
G|-----------------------------------|
D|-----------------------------------|
A|---0-------0-----------------------|
E|-----------------------------------|
    the time

E|------------3--*-------3--*---3--3---3--3-------3---------1---------1----|
B|------------5--*-------5--*---3--3---3--3-------3---t--1--1---------1-t--|
G|------------4--*-------4--*---4--4---4--4-------4---a-----------------a--|
D|---------------*----------*-------------------------p-----------------p--|
A|----------3----*----------*---2------2------2+--2------1-----------------|
E|---------------*--3-3-----*----------------------------------1---1-------|
I can't sleep no matter what I do---------              I just keep on 


E|---0--0--0-0-----------------------|
B|---1--1--1-1-----------------------|
G|-----------------------------------|
D|-----------------------------------|
A|---0-------0-----------------------|
E|-----------------------------------|
  thinkin bout you



Bridge:


E|----6---6----6----6-----6-------------3-------3----------------------|
B|----8---8----8----8-----8-------------3-------3----------------------|
G|----7---7----7----7-----7-------------4-------4----------------------|
D|----8---8----8----8-----8--------------------------------------------|
A|----6---6----6----6-----6--------------------------------------------|
E|------------------------------------3-----3-3------------------------|
      No I don't want to start no trouble

E|----3---------------1----------------3-------3----------------------|
B|----4---------------1----------------3-------3----------------------|
G|----5---------------2----------------4-------4----------------------|
D|----5---------------3-----------------------------------------------|
A|----3---------------3-----------------------------------------------|
E|--------------------1--------------3----3--3------------------------|
      Between you and I and your lover


E|----6---6----6----6-----6-------------3-------3----------------------|
B|----8---8----8----8-----8-------------3-------3----------------------|
G|----7---7----7----7-----7-------------4-------4----------------------|
D|----8---8----8----8-----8--------------------------------------------|
A|----6---6----6----6-----6--------------------------------------------|
E|------------------------------------3-----3-3------------------------|
    But I must tell you what I'm going through

E|--------0---------------------------3----------------3--------------|
B|--------2-----------------3---------3----------------1--------------|
G|--------0-----------------2--------------------------2--------------|
D|--------1--------------------------------------------0--------------|
A|--------0-----------------2---------3-------------------------------|
E|--------------------------------------------------------------------|
 Every time you walk by I see love in your eyes

(Adlib)
(Chorus)

Comments,questions?? send me a message in friendster at Walterfdelacruz@yahoo.com or you 
text me or call me at 09224012464
Suggest correction
What's this?
You can suggest a correction to this tab. Community and Mods will review your correction and vote to approve or reject it.
comments
print report bad tab
1 comment total.
0 reply
Spikee20 15 wrote on February 1 2006, 01:56 am

Again... not so accurate tablature... anyway for tab request.. email me at spikee2_20@yahoo.com or in friendster, i'll try tab some of the songs if im free... :-)

guest
You may want to rate the tab now too:
select rating
Please do not post tabs as comments. Select "correction" instead!