Oops, an error
Loading. Please wait.

Especially For You Chords

version 1
version 1

Whole song

Interactive

by MYMP
74,310 views 234 this week
no commentswrite comment
1 2 3 4 5
please rate
add to favorites
launch autoscroll
font size
0
reset
transpose
0
reset
simplify chords
display chords
guitar tuner
Tab Pro tools
  • play this tab
  • loop segment
  • change instrument
  • show fretboard
  • metronome
×
Best way to learn
"Especially For You"
Autoscroll
slow
fast
+/-
esc
set tempo
stop
Contributor
By :lugaaw@yahoo.com

Here is my Chords translation ! Broken po eto
just practice the guitar tappings
and listen how he plucks


Verses Chords 
    
     G      FM7       D7       Gm       G      FM7    A7         C#m     Gm   Bbm7
e|---3-------0---------0--------3-------3------0-------0---------5-------3----1----|
B|---3-------1---------3--------3-------3------1-------1---------6-------3----2----|
G|---3-- ----2---------2--------3-------3------2-------0---------5-------3----3----|
D|---3-------3------------------3-------3------3-------2---------5-------3----3----|
A|---3--------------------------5-------3------------------------5-------5----1----|
E|---------------------------------------------------------------------------------|

Refrains
     F      A     Dm7       Bb
e|-----------------5--------1--------------------------------------------------|
B|-----------------6--------1--------------------------------------------------|
G|-----------------5--------3--------------------------------------------------|
D|---3------5------7--------3--------------------------------------------------|
A|---3------7------5--------1--------------------------------------------------|
E|---1------5------------------------------------------------------------------|

Chorus
    A       Dm7      Bb       Cm           (*) F
e|----------5--------1---------3---------------1-------------------------------|
B|----------6--------1---------3---------------1-------------------------------|
G|----------5--------3---------5---------------1-------------------------------|
D|--5-------7--------3---------5---------------3-------------------------------|
A|--7-------5--------1---------3---------------3-------------------------------|
E|--5------------------------------------------2-------------------------------|



Verse   1
G              FM7
Especially for you 
D7                                            Gm
I wanna let you know what I was going      Through
G                                      
All the time we were apart I thought of
FM7            A7                   C#m     Gm                Bbm7
Y---o---u ,   You were  in my   heart       My love never change
           G
I still feel the same    

Verse   2
G               FM7
Especially for you
D7                                           Gm                            
I wanna tell you I was feeling that way     too
G        
And if dreams were wings, you know I  have flown to
Fm7             A7                C#m     Gm              Bbm7  
Y---o---u      to   be where you are      no matter how far
             G
And now that I'm next to you



Refrain 1
F
No more dreaming about tomorrow
A
Forget the loneliness and the sorrow
Dm7                                 Bb
I've got to say its all because of  you and now we're back 

Chorus
A             Dm7        Bb         Cm          
Toge -     ther    ,  Toge   -    ther     I wanna 
A           Dm7                  Bb           Cm
Show      you my     heart is    oh   so    true  and all the 
A          Dm7            Bb            Cm              F
Love      I had      is   So    especially     for you


Verse3

Especially for you 
I wanna tell you, you mean all the world to me
How I'm certain that our love was meant to be
You changed my life
You showed me the way
And now that I'm next to you

Rerfrain 2
ive waited long enough to find you
I wanna put all the hurt behind you
And I wanna bring out all the love inside you,Oh


Adliv
refrain 1
Chorus



Good luck !
By :lugaaw@yahoo.com
comments
We did not receive enough feedback on this tab! Please rate:
print report bad tab
1 2 3 4 5
I want to post or [tab]
guest
You may want to rate the tab now too:
select rating
Please do not post tabs as comments. Select "correction" instead!