Oops, an error
Loading. Please wait.

Especially For You Tab

version 1
version 1

Whole song

Interactive

by MYMP
166,499 views 129 this week
29 commentsread comments
1 2 3 4 5
x 78
add to favorites
launch autoscroll
font size
0
reset
how to read this tab
guitar tuner
Autoscroll
slow
fast
+/-
esc
set tempo
stop
Help us to improve Ultimate-Guitar.com Take our survey!
×
[Intro]                          [Verse]

                                       FM7      
e|--------------p----------------*-------0-0-------0---------|
B|--t-------3---a----t----3------*-------1---t--1----1--t----|
G|--a-------3---u----a----3------*-----------a----------a----|
D|--p-----------s----p-----------*-----------p----------p----|
A|-----+3---3---e---------3------*---------------------------|
E|-------------------------------*-------1------1------------|
                         Especially for you          

                   D7                              Gm 
e|--------------------------------------*-------3--------3----------|
B|---------3---3---------3--------3-----*----3-----t--3----3--t-----|
G|-----------------t--------------------*----------a----------a-----|
D|-----------------a--------------------*----------p----------p-----|
A|---------5-------p-----5---5----------*---------------------------|
E|--------------------------------------*----3--------3-------------|
  I wanna let you know what I was going      Through

                        C9
e|------------------------------3--------------------------------------|
B|-----------3--3---t----3-----------t---------------------------------|
G|------------------a----------------a---------------------------------|
D|------------------p----------------p---------------------------------|
A|-----------3-----------3---3-----------------------------------------|
E|---------------------------------------------------------------------|
   All the time we were apart I thought of

       F              F/E            EbM9         Dm          Bb
e|-----1-----------------0--------------------------------------1------|
B|-----1--t--1-----------0---t---------6-6----------6---t-------1--t---|
G|-----2--a--2-----------2---a---------7-7----------7---a----------a---|
D|--------p--3-----------3---p---------8-8----------7---p----------p---|
A|----------------------------------6-------------5-----------1--------|
E|---1--------------0--------------------------------------------------|
     Y---o---u ,   You were  in my   heart     My love never change


           Bb               C9                  F
e|-------1---1---1--------------------------------0-0-------0----------|
B|-------1---1---1-------3------3--------------1---t--1----1--t--------|
G|-----------------------3---t--3------------------a----------a--------|
D|---------------------------a---------------------p----------p--------|
A|-------1---1---1-------3---p--3--------------------------------------|
E|---------------------------------------------1------1----------------|
      I still feel the same     Especially for you


                        Dm                          Gm 
e|--------------------------------------*-------3--------3----------|
B|---------3---3---------3--------3-----*----3-----t--3----3--t-----|
G|-----------------t--------------------*----------a----------a-----|
D|-----------------a--------------------*----------p----------p-----|
A|---------5-------p-----5---5----------*---------------------------|
E|--------------------------------------*----3--------3-------------|
  I wanna tell you I was feeling that way    too

                        C9
e|-----------------------------------3---------------------------------|
B|-----------3--3---t------3------------------t------------------------|
G|------------------a-------------------------a------------------------|
D|------------------p-------------------------p------------------------|
A|-----------3-------------3-----3-------------------------------------|
E|---------------------------------------------------------------------|
 And if dreams were wings, you know I have flown to 


       F              F/E            EbM9         Dm          Bb
e|-----1-----------------0--------------------------------------1------|
B|-----1--t--1-----------0---t---------6-6----------6---t-------1--t---|
G|-----2--a--2-----------2---a---------7-7----------7---a----------a---|
D|--------p--3-----------3---p---------8-8----------7---p----------p---|
A|----------------------------------6-------------5-----------1--------|
E|---1--------------0--------------------------------------------------|
     Y---o---u      to   be where you are    no matter how far


e|----1----1------1--------1--------------------------------|
B|----1----1------1--------1--------------------------------|
G|----------------------------------------------------------|
D|----------------------------------------------------------|
A|----1----1------1--------1--------------------------------|
E|----------------------------------------------------------|
   And now that I'm next to you


[Refrain]

(Pakinggan u ung strumming ni chin dito para makuha nyo)
POWER CHORDS PO DITO.

             F
e|---------------------------------------------------------------------|
B|---------------------------------------------------------------------|
G|--2---2--2----2-----2----2----2--------------------------------------|
D|--3---3--3----3-----3----3----3--------------------------------------|
A|--3---3--3----3-----3----3----3--------------------------------------|
E|--1---1--1----1-----1----1----1--------------------------------------|
    No more dreaming about tomorrow


             A7
e|---------------------------------------------------------------------|
B|---------------------------------------------------------------------|
G|---6---6----6-------6-----6-----6---6--------------------------------|
D|---5---5----5-------5-----5-----5---5--------------------------------|
A|---7---7----7-------7-----7-----7---7--------------------------------|
E|---5---5----5-------5-----5-----5---5--------------------------------|
   Forget the loneliness and the sorrow


          Dm7                           Bb
e|---5--5--5---5---5--5--5---5---5--*----------------------------------|
B|---6--6--6---6---6--6--6---6---6--*----------------------------------|
G|---5--5--5---5---5--5--5---5---5--*---7—7---7---7--7--7----7---------|
D|---7--7--7---7---7--7--7---7---7--*---8-8---8---8--8--8----8---------|
A|---5--5--5---5---5--5--5---5---5--*---8-8---8---8--8--8----8---------|
E|----------------------------------*---6-6---6---6--6--6----6---------|
    I've got to say its all because of  you and now we're back  


[Chorus]

(this part is a little tricky with tapping and dapat mabilis kamay nyo)

      Am          Dm7         Gm         C
e|-------5---------5------------3------------3-------------------------|
B|-------5-t-------6--t---------3---t--------3---t---------------------|
G|-------5-a-------5--a---------3---a--------5---a---------------------|
D|---------p-------7--p-------------p------------p---------------------|
A|--------------5-----------------------3------------------------------|
E|----5----------------------3-----------------------------------------|
    Toge -     ther    ,  Toge   -    ther   I wanna   
 


      Am          Dm7                 Gm         C
e|-------5---------5---------------------3---------------3---------------|
B|-------5-t-------6--t------------------3---t-----------3--t------------|
G|-------5-a-------5--a------------------3---a-----------5--a------------|
D|---------p-------7--p----------------------p--------------p------------|
A|--------------5---------------------------------3----------------------|
E|----5-------------------------------3----------------------------------|
      Show      you my heart is       oh   so    true  and all the 



      Am          Dm7                 Gm         C
e|-------5---------5---------------------3------------3-------------------|
B|-------5-t-------6--t------------------3---t--------3---t---1--t-1--1-t-|
G|-------5-a-------5--a------------------3---a--------5---a------a------a-|
D|---------p-------7--p----------------------p------------p------p------p-|
A|--------------5---------------------------------3-----------------------|
E|----5-------------------------------3-----------------------1----1-1----|
     Love      I had          is       especially     for you


[Verse 2]

(just like verse 1, diskarte u n lng po.)

e|---------------------------------------------------------------------|
B|--3--t--3------------------------------------------------------------|
G|--3--a--3------------------------------------------------------------|
D|-----p---------------------------------------------------------------|
A|--3-----3------------------------------------------------------------|
E|---------------------------------------------------------------------|
         Especially for you 


I wanna tell you, you mean all the world to me
How I'm certain that our love was meant to be
You changed my life
You showed me the way
+And now that I'm next to you


Refrain 2:(just like refrain)
ive waited long enough to find you
I wanna put all the hurt behind you Oh,
And I wanna bring out all the love inside you,Oh


[Chorus]


[Instrumental]

e|---------------------------------------------------------|
B|--------------------------------------------7-8s10-8-----|
G|---7-9-9s10-9-7-7h9-7s5-------5-7-7-7-8-7-8--------------|
D|--7-------------------------7----------------------------|
A|--------------------------5------------------------------|
E|---------------------------------------------------------|

e|---------------------------------------------------------|
B|---------------------------------------------------------|
G|---------------------------------------------------------|
D|--10p8-10p8-10-8-10-10s12-10-8-7-------------------------|
A|---------------------------------------------------------|
E|---------------------------------------------------------|

repeat refrain
repeat chorus


[Outro]
    
     C9     F
e|-------------1--------------------------------------------------------|
B|--3--t--3----1--------------------------------------------------------|
G|--3--a--3----2--------------------------------------------------------|
D|-----p-------3--------------------------------------------------------|
A|--3-----3----3--------------------------------------------------------|
E|-------------1--------------------------------------------------------|

************************************

| h  Hammer-on
| p  Pull-off
| t  Tapping
| s  slide
| + harmonic

************************************
Suggest correction
comments
print report bad tab
29 comments total. Showing first comments.
0 reply
GuitaroooMan 123 Aug 15, 2005 12:00 AM

This tab is missing some stuff. Good effort. 75 percent done.

0 reply
francis666 102 Sep 13, 2005 12:00 AM

mali ung una may c flat po un alam q ehh yun lng \m/ \m/

0 reply
AldJensHie 10 Oct 04, 2005 09:45 PM

Ang galing mo talaga pare, hangang-hanga talaga ako sayo
Just keep it up!!!
Cause
Your the Man!!!!!

Galing mo!!!!!!!!!!!!!!!

guest
You may want to rate the tab now too:
select rating
Wanna post a correction for this tab? Suggest correction