Oops, an error
Loading. Please wait.

Especially For You Tab

version 2
version 2

Whole song

Interactive

by MYMP
13,209 views 3 this week
no commentswrite comment
1 2 3 4 5
x 6
add to favorites
launch autoscroll
font size
0
reset
how to read this tab
guitar tuner
Autoscroll
slow
fast
+/-
esc
set tempo
stop
Help us to improve Ultimate-Guitar.com Take our survey!
×
Author
Song: Especially For you
By  : MYMP
Album: Versions
Standard Tuning: Open Em
Transcribed by: Joven Dasigan ( angeljov03@yahoo.com )

Guys sana magustuhan nyo.......
Di ko alam kung tama tong gawa ko pero sinubukan kong sabayan yung song wala naman
pagkakaiba... Tagal ko din tong pinaghirapan gawin, sana maappreciate nyong lahat
kasi favorite ko talaga to! Para sa mga tropa ko, sa inyong lahat mga insomniacz
Adamson at sa mga RMHS2000.. Especially for you JOEVEN..para syo to..thank you so much! 


Intro:                   Verse:

                                       F      
E|-----------------------*-------0-0-------0---------|
B|--t-------3--t--3------*-----------t--1----1--t----|
G|--a-------3--a--3------*-----------a----------a----|
D|--p----------p---------*-----------p----------p----|
A|----harm3-3-----3------*---------------------------|
E|-----------------------*-------1------1------------|
                 Especially for you          


                   Dm                             Bb
E|--------------------------------------*-------3--------3----------|
B|---------3---3---------3--------3-----*----3-----t--3----3--t-----|
G|-----------------t--------------------*----------a----------a-----|
D|-----------------a--------------------*----------p----------p-----|
A|---------5-------p-----5---5----------*----1--------1-------------|
E|--------------------------------------*---------------------------|
  I wanna let you know what I was going      Through


                        C9
E|------------------------------3--------------------------------------|
B|-----------3--3---t----3-----------t---------------------------------|
G|------------------a----------------a---------------------------------|
D|------------------p----------------p---------------------------------|
A|-----------3-----------3---3-----------------------------------------|
E|---------------------------------------------------------------------|
   All the time we were apart I thought of


      F              Am             Dm7              C            Bb    
E|-----1-----*----------------------5-5---------------------------------|
B|-----1--t--*---------5----t-------6-6----------------5--t-------------|
G|-----2--a--*---------5----a-------5-5----------------5--a---3--3--3---|
D|-----3--p--*---------7----p-------7-7----------------5--p---3--3--3---|
A|-----------*---------7----------5----------------3----------1--1--1---|
E|---1-------*-----5----------------------------------------------------|
     You ,        You were in my heart       My love never change



           Bb               C9                  F
E|---------------------------------------------0-0-------0-------------|
B|-----------------------3------3------------------t--1----1--t--------|
G|-------3---3---3-------3---t--3------------------a----------a--------|
D|-------3---3---3-----------a---------------------p----------p--------|
A|-------1---1---1-------3---p--3--------------------------------------|
E|---------------------------------------------1------1----------------|
      I still feel the same     Especially for you


                   Dm                             Bb
E|--------------------------------------*-------3--------3----------|
B|---------3---3---------3--------3-----*----3-----t--3----3--t-----|
G|-----------------t--------------------*----------a----------a-----|
D|-----------------a--------------------*----------p----------p-----|
A|---------5-------p-----5---5----------*----1--------1-------------|
E|--------------------------------------*---------------------------|
  I wanna tell you I was feeling that way    too


                        C9
E|-----------------------------------3---------------------------------|
B|-----------3--3---t------3------------------t------------------------|
G|------------------a-------------------------a------------------------|
D|------------------p-------------------------p------------------------|
A|-----------3-------------3-----3-------------------------------------|
E|---------------------------------------------------------------------|
  And if dreams were wings, you know I have flown to 


      F              Am             Dm7              C            Bb    
E|-----1-----*----------------------5-5---------------------------------|
B|-----1--t--*---------5----t-------6-6----------------5--t-------------|
G|-----2--a--*---------5----a-------5-5----------------5--a-----3--3----|
D|-----3--p--*---------7----p-------7-7----------------5--p-----3--3----|
A|-----------*---------7----------5----------------3------------1--1----|
E|---1-------*-----5----------------------------------------------------|
   You            to be where  you are            no matter how far



E|---------------------------------------------------------------------|
B|---------------------------------------------------------------------|
G|----3----3------3--------3-------------------------------------------|
D|----3----3------3--------3-------------------------------------------|
A|----1----1------1--------1-------------------------------------------|
E|---------------------------------------------------------------------|
   And now that I'm next to you









Refrain: ( Strumming )


             F
E|---------------------------------------------------------------------|
B|---------------------------------------------------------------------|
G|--2---2--2----2-----2----2----2--------------------------------------|
D|--3---3--3----3-----3----3----3--------------------------------------|
A|--3---3--3----3-----3----3----3--------------------------------------|
E|--1---1--1----1-----1----1----1--------------------------------------|
    No more dreaming about tomorrow


             A7
E|---------------------------------------------------------------------|
B|---------------------------------------------------------------------|
G|---6---6----6-------6-----6-----6---6--------------------------------|
D|---5---5----5-------5-----5-----5---5--------------------------------|
A|---7---7----7-------7-----7-----7---7--------------------------------|
E|---5---5----5-------5-----5-----5---5--------------------------------|
   Forget the loneliness and the sorrow


          Dm7                           Bb
E|---5--5--5---5---5--5--5---5---5--*----------------------------------|
B|---6--6--6---6---6--6--6---6---6--*----------------------------------|
G|---5--5--5---5---5--5--5---5---5--*---7—7---7---7--7--7----7---------|
D|---7--7--7---7---7--7--7---7---7--*---8-8---8---8--8--8----8---------|
A|---5--5--5---5---5--5--5---5---5--*---8-8---8---8--8--8----8---------|
E|----------------------------------*---6-6---6---6--6--6----6---------|
    I've got to say its all because of  you and now we're back  



Chorus:


      Am          Dm7         Gm         C
E|-------5---------5------------3------------3-------------------------|
B|-------5-t-------6--t---------3---t--------3---t---------------------|
G|-------5-a-------5--a---------3---a--------5---a---------------------|
D|---------p-------7--p-------------p------------p---------------------|
A|--------------5---------5--------------3-----------3-----------------|
E|----5----------------------3-----------------------------------------|
    Toge -     ther    ,  Toge   -    ther   I wanna   
 


      Am          Dm7                 Gm         C
E|-------5---------5---------------------3---------------3---------------|
B|-------5-t-------6--t------------------3---t-----------3--t------------|
G|-------5-a-------5--a------------------3---a-----------5--a------------|
D|---------p-------7--p----------------------p--------------p------------|
A|--------------5---------5-----------------------3-------------3--------|
E|----5-------------------------------3----------------------------------|
      Show      you my heart is       oh   so    true  and all the 


      Am          Dm7                 Gm         C
E|-------5---------5---------------------3------------3-------------------|
B|-------5-t-------6--t------------------3---t--------3---t---1--t-1--1-t-|
G|-------5-a-------5--a------------------3---a--------5---a------a------a-|
D|---------p-------7--p----------------------p------------p------p------p-|
A|--------------5---------5-----------------------3-----------------------|
E|----5-------------------------------3-----------------------1----1-1----|
     Love      I had          is       especially     for you


Verse 2 ( Pareho lang )


                                       F      
E|-----------------------*-------0-0-------0---------|
B|--t-------3--t--3------*-----------t--1----1--t----|
G|--a-------3--a--3------*-----------a----------a----|
D|--p----------p---------*-----------p----------p----|
A|----harm3-3-----3------*---------------------------|
E|-----------------------*-------1------1------------|
                 Especially for you          


                   Dm                             Bb
E|--------------------------------------*-------3--------3----------|
B|---------3---3---------3--------3-----*----3-----t--3----3--t-----|
G|-----------------t--------------------*----------a----------a-----|
D|-----------------a--------------------*----------p----------p-----|
A|---------5-------p-----5---5----------*----1--------1-------------|
E|--------------------------------------*---------------------------| 
  I wanna tell you, you mean all the world to me


                        C9
E|------------------------------3--------------------------------------|
B|-----------3--3---t----3-----------t---------------------------------|
G|------------------a----------------a---------------------------------|
D|------------------p----------------p---------------------------------|
A|-----------3-----------3---3-----------------------------------------|
E|---------------------------------------------------------------------|
   How I'm certain that our love was meant to 


      F              Am             Dm7              C            Bb    
E|-----1-----*----------------------5-5---------------------------------|
B|-----1--t--*---------5----t-------6-6----------------5--t-------------|
G|-----2--a--*---------5----a-------5-5----------------5--a---3--3--3---|
D|-----3--p--*---------7----p-------7-7----------------5--p---3--3--3---|
A|-----------*---------7----------5----------------3----------1--1--1---|
E|---1-------*-----5----------------------------------------------------|
     Be        You changed my life       You showed me the way






E|---------------------------------------------------------------------|
B|---------------------------------------------------------------------|
G|----3----3------3--------3-------------------------------------------|
D|----3----3------3--------3-------------------------------------------|
A|----1----1------1--------1-------------------------------------------|
E|---------------------------------------------------------------------|
   And now that I'm next to you



2nd Refrain: 


             F
E|---------------------------------------------------------------------|
B|---------------------------------------------------------------------|
G|--2---2--2----2-----2----2----2--------------------------------------|
D|--3---3--3----3-----3----3----3--------------------------------------|
A|--3---3--3----3-----3----3----3--------------------------------------|
E|--1---1--1----1-----1----1----1--------------------------------------|
    ive waited long enough to find you


             A7
E|---------------------------------------------------------------------|
B|---------------------------------------------------------------------|
G|---6---6----6-------6-----6-----6---6--------------------------------|
D|---5---5----5-------5-----5-----5---5--------------------------------|
A|---7---7----7-------7-----7-----7---7--------------------------------|
E|---5---5----5-------5-----5-----5---5--------------------------------|
   I wanna put all the hurt behind you Oh,


          Dm7                           Bb
E|---5--5--5---5---5--5--5---5---5--*----------------------------------|
B|---6--6--6---6---6--6--6---6---6--*----------------------------------|
G|---5--5--5---5---5--5--5---5---5--*---7—7---7---7--7--7----7---------|
D|---7--7--7---7---7--7--7---7---7--*---8-8---8---8--8--8----8---------|
A|---5--5--5---5---5--5--5---5---5--*---8-8---8---8--8--8----8---------|
E|----------------------------------*---6-6---6---6--6--6----6---------|
    And I wanna bring out all the love inside you,Oh


Repeat Chorus:


      Am          Dm7         Gm         C
E|-------5---------5------------3------------3-------------------------|
B|-------5-t-------6--t---------3---t--------3---t---------------------|
G|-------5-a-------5--a---------3---a--------5---a---------------------|
D|---------p-------7--p-------------p------------p---------------------|
A|--------------5---------5--------------3-----------3-----------------|
E|----5----------------------3-----------------------------------------|
    Toge -     ther    ,  Toge   -    ther   I wanna   



      Am          Dm7                 Gm         C
E|-------5---------5---------------------3---------------3---------------|
B|-------5-t-------6--t------------------3---t-----------3--t------------|
G|-------5-a-------5--a------------------3---a-----------5--a------------|
D|---------p-------7--p----------------------p--------------p------------|
A|--------------5---------5-----------------------3-------------3--------|
E|----5-------------------------------3----------------------------------|
      Show      you my heart is       oh   so    true  and all the


      Am          Dm7                 Gm         C
E|-------5---------5---------------------3------------3-------------------|
B|-------5-t-------6--t------------------3---t--------3---t---1--t-1--1-t-|
G|-------5-a-------5--a------------------3---a--------5---a------a------a-|
D|---------p-------7--p----------------------p------------p------p------p-|
A|--------------5---------5-----------------------3-----------------------|
E|----5-------------------------------3-----------------------1----1-1----|
     Love      I had          is       especially     for you



Solo Part:


E---------------------------------------------------------|
B------------------------------------------5-7-8/10-8-----|
G---7-9-9/10-9-7-7h9-7\5-------5-7-7-7/8-8----------------|
D--7-------------------------7----------------------------|
A--------------------------5------------------------------|
E---------------------------------------------------------|

E---------------------------------------------------------|
B---------------------------------------------------------|
G---------------------------------------------------------|
D---------------------------------------------------------|
A--10p8-10p8-10-8-10-10/12-10-8-7-------------------------|
E---------------------------------------------------------|


Repeat Chorus:(2 Times)

Last part after last chorus
    
     C9     F
E|-------------1------------|
B|--3--t--3----1------------|
G|--3--a--3----2------------|
D|-----p-------3------------|
A|--3-----3----3------------|
E|-------------1------------|

End...

Kayo na po bahala sa mga mali ko,but I think this is 100% correct..
Suggest correction
comments
print report bad tab
guest
You may want to rate the tab now too:
select rating
Wanna post a correction for this tab? Suggest correction