Oops, an error
Loading. Please wait.

Every Little Thing He Does Is Magic Tab

version 2
version 2

Whole song

by MYMP
12,645 views 12 this week
no commentswrite comment
1 2 3 4 5
excellent!
x 6
add to favorites
launch autoscroll
font size
0
reset
how to read this tab
guitar tuner
Tab Pro tools
  • play this tab
  • loop segment
  • change instrument
  • show fretboard
  • metronome
×
Best way to learn
"Every Little Thing He Does Is Magic"
Autoscroll
slow
fast
+/-
esc
set tempo
stop
Song: Every little thing
Band: MYMP


[Repeat twice for intro and three times for the verse]
e|------0----------0--------0-----------------------------------------|
B|--------4----------4--------4--------4------4-----------------------|
G|---------4----------4--------4------4------4------------------------|
D|--------------------------------------------------------------------|
A|---0----------2--------0--------2-----------------------------------|
E|----------------------------------------4---------------------------|
Verse:	Though I've tried before to tell him
	Of the feelings I have for him in my heart
	Every time that I come near him
	I just lose my nerve
	As I've done from the... 


e|------------------------------------------0-------------------------|
B|---0-----2--4--0-----2--4-----0-----2--4--0-------------------------|
G|---1-----2--4--1-----2--4-----1-----2--4----------------------------|
D|------------------------------------------2-------------------------|
A|---------0--2--------0--2-----------0--2----------------------------|
E|---0-----------0--------------0-------------------------------------|
	start...


[Repeat riff thrice, "V-strum" on last four chords]
e|-------------------0--------0-0-0-----------------------------------|
B|---4----4--4-------5--5---—-5-5-5-----------------------------------|
G|---4----4—-4---4---4--4--4—-4-4-4-----------------------------------|
D|-----4-—4--4---2---------2—-2-2-2-----------------------------------|
A|--------------------------------------------------------------------|
E|--------------------------------------------------------------------|
	Coz every little thing he does is magic
	Everything he does just turns me on
	Even though my life before was tragic
	Now I know my 


e|--------------------------------------------------------------------|
B|---4----4----4------------------------------------------------------|
G|---4----4----4------------------------------------------------------|
D|-----4--4----4------------------------------------------------------|
A|--------------------------------------------------------------------|
E|--------------------------------------------------------------------|
	love for him goes...
	

e|------3--------2--2-------------------------------------------0-----|
B|------3--------3--3-----0----2--4--0-----2--4-----0-----2--4—-0-----|
G|------0-----2-----------1----2--4--1-----2--4-----1-----2--4--------|
D|---2--------0-------------------------------------------------2-----|
A|---3-------------------------0--2--------0--2-----------0--2--------|
E|------------------------0----------0--------------0-----------------|
	on...

 
[play twice then thrice again for the verse]
e|------0----------0--------0-----------------------------------------|
B|--------4----------4--------4--------4------4-----------------------|
G|---------4----------4--------4------4------4------------------------|
D|--------------------------------------------------------------------|
A|---0----------2--------0--------2-----------------------------------|
E|----------------------------------------4---------------------------|
	Do I have to tell the story?
Of a thousand rainy days since we first met
It's a big enough umbrella
But it's always me who ends up getting...


e|------------------------------------------0-------------------------|
B|---0-----2--4--0-----2--4-----0-----2--4--0-------------------------|
G|---1-----2--4--1-----2--4-----1-----2--4----------------------------|
D|------------------------------------------2-------------------------|
A|---------0--2--------0--2-----------0--2----------------------------|
E|---0-----------0--------------0-------------------------------------|
	wet...


[Repeat riff four times, "V-strum" on last four chords]
e|-------------------0--------0-0-0-----------------------------------|
B|---4----4--4-------5--5---—-5-5-5-----------------------------------|
G|---4----4—-4---4---4--4--4—-4-4-4-----------------------------------|
D|-----4-—4--4---2---------2—-2-2-2-----------------------------------|
A|--------------------------------------------------------------------|
E|--------------------------------------------------------------------|
	Coz every little thing he does is magic
	Everything he does just turns me on
	Even though my life before was tragic
	Now I know my... 

e|--------------------------------------------------------------------|
B|---4----4----4------------------------------------------------------|
G|---4----4----4------------------------------------------------------|
D|-----4--4----4------------------------------------------------------|
A|--------------------------------------------------------------------|
E|--------------------------------------------------------------------|
	Love for him goes...
	
e|--------3------------2------------3------------2-------------------|
B|--------3--3---------3--3---------3--3---------3--3----------------|
G|-----------0----2-------2------------0----2-------2----------------|
D|---2------------0------------2------------0------------------------|
A|---3-------------------------3-------------------------------------|
E|-------------------------------------------------------------------|
	On...

e|--------3------------2------------3------------2-------------------|
B|--------3--3---------3--3---------3--3---------3--3----------------|
G|----------------2-------------------------2------------------------|
D|---2------------0------------2------------0------------------------|
A|---3-------------------------3-------------------------------------|
E|-------------------------------------------------------------------|
	I resolve to call him up a thousand times a day
e|--------3------------2------------3---------------------------------|
B|--------3--3---------3--3---------3--3----2--2--2--2----------------|
G|----------------2-------------------------0--0--0--0----------------|
D|---2------------0------------2--------------------------------------|
A|---3-------------------------3--------------------------------------|
E|--------------------------------------------------------------------| 
	And ask him if he'll marry me in some old fashioned way


e|---3-----3---------0--0--0--------3-----3---------0--0--0-----------|
B|---3-----3—-3------3--3--3--3-----3-----3--3------3--3--3--3--------|
G|---0--0--0--0—-0---2--------2--2--0--0--0--0--0---2--------2--2-----|
D|---2--2--------2---0-----------0--2--2--------2---0-----------0-----|
A|---3------------------------------3---------------------------------|
E|--------------------------------------------------------------------|
	But my silent fears have gripped me
	Long before I reach the phone


[V-strum]	
e|---------3--3--3--3--3--3--3--3-------------------------------------|
B|---3--3--3--3--3--3--3--3--3--3-------------------------------------|
G|---0—-0--0--0—-0--0--0--0--0--0-------------------------------------|
D|---2--2--2--2--2--2--2--2--2--2-------------------------------------|
A|---3-----3--3--3--3-----3--3--3-------------------------------------|
E|--------------------------------------------------------------------|
Long before my tongue has tripped me


[V-strum]
e|------0--0--0--0--0--0--0--0--0-------------------------------------|
B|---3--3--3--3--3--3--3--3—-3--3-------------------------------------|
G|---2--2--2--2--2--2--2--2--2--2-------------------------------------|
D|---0-----0--0--0--0-----0--0--0-------------------------------------|
A|--------------------------------------------------------------------|
E|--------------------------------------------------------------------|
	Must I always be 

e|------------------------------------------0-------------------------|
B|---0-----2--4--0-----2--4-----0-----2--4--0-------------------------|
G|---1-----2--4--1-----2--4-----1-----2--4----------------------------|
D|------------------------------------------2-------------------------|
A|---------0--2--------0--2-----------0--2----------------------------|
E|---0-----------0--------------0-------------------------------------|
	alone?

["V-strum" on last four chords]
e|-------------------0--------0-0-0-----------------------------------|
B|---4----4--4-------5--5---—-5-5-5-----------------------------------|
G|---4----4—-4---4---4--4--4—-4-4-4-----------------------------------|
D|-----4-—4--4---2---------2—-----------------------------------------|
A|--------------------------------------------------------------------|
E|--------------------------------------------------------------------|
	Coz every little thing he does is magic
	Everything he does just turns me on
	Even though my life before was tragic
	Now I know my love for him goes on


["V-strum" on last four chords]
e|-------------------0--------0-0-0-----------------------------------|
B|---4----4--4-------5--5---—-5-5-5-----------------------------------|
G|---4----4—-4---4---4--4--4—-4-4-4-----------------------------------|
D|-----4-—4--4---2---------2—-----------------------------------------|
A|--------------------------------------------------------------------|
E|--------------------------------------------------------------------|
	Every little thing he does is magic
	Everything he does just turns me on
	Even though my life before was tragic
	Now I know my...

e|--------------------------------------------------------------------|
B|---4----4----4------------------------------------------------------|
G|---4----4----4------------------------------------------------------|
D|-----4--4----4------------------------------------------------------|
A|--------------------------------------------------------------------|
E|--------------------------------------------------------------------|
	love for him goes...
	
e|--------3--3---------2------------3------------2-------------------|
B|--------3--3---------3--3---------3--3---------3--3----------------|
G|-----------0----2-------2------------0----2-------2----------------|
D|---2------------0------------2------------0------------------------|
A|---3-------------------------3-------------------------------------|
E|-------------------------------------------------------------------|
	on...

e|--------3--3---------2------------3------------2-------------------|
B|--------3--3---------3--3---------3--3---------3--3----------------|
G|-----------0----2-------2------------0----2-------2----------------|
D|---2------------0------------2------------0------------------------|
A|---3-------------------------3-------------------------------------|
E|-------------------------------------------------------------------|
	goes on...

e|--------3------------2------------3------------2-------------------|
B|--------3--3---------3--3---------3--3---------3--3----------------|
G|-----------0----2-------2------------0----2-------2----------------|
D|---2------------0------------2------------0------------------------|
A|---3-------------------------3-------------------------------------|
E|-------------------------------------------------------------------|
	Every little thing
	Every little thing he does 



[Just V-strum on C9 and D]
e|-----3-3---3—3--2-2-2---2-2----------------------------------------|
B|---3-3-3-3-3—3--3-3-3-3-3-3----------------------------------------|
G|---0---0-0-0—0--2---2-2-2-2----------------------------------------|
D|---2-------2—2--0---------0----------------------------------------|
A|---3---------3-----------------------------------------------------|
E|-------------------------------------------------------------------|
Every little thing he does is



e|--------------------------------------------------------------------|
B|---0-----2--4--0-----2--4-------------------------------------------|
G|---1-----2--4--1-----2--4------------------------------------------|
D|--------------------------------------------------------------------|
A|---------0--2--------0--2-------------------------------------------|
E|---0-----------0----------------------------------------------------|
	magic, magic,magic!


e|--------3------------2------------3------------2-------------------|
B|--------3--3---------3--3---------3--3---------3--3----------------|
G|-----------0----2-------2------------0----2-------2----------------|
D|---2------------0------------2------------0------------------------|
A|---3-------------------------3-------------------------------------|
E|-------------------------------------------------------------------|
	Every little thing
	Every little thing he does 


[Just V-strum on C9 and D]
e|-----3-3---3—3--2-2-2---2-2-----------------------------------------|
B|---3-3-3-3-3—3--3-3-3-3-3-3-----------------------------------------|
G|---0---0-0-0—0--2---2-2-2-2-----------------------------------------|
D|---2-------2—2--0---------0-----------------------------------------|
A|---3---------3------------------------------------------------------|
E|--------------------------------------------------------------------|
	Every little thing he does is


e|-------------------------------------------0------------------------|
B|---0-----2--4--0-----2--4-----0-----2--4---0------------------------|
G|---1-----2--4--1-----2--4-----1-----2--4---4------------------------|
D|-------------------------------------------2------------------------|
A|---------0--2--------0--2-----------0--2----------------------------|
E|---0-----------0--------------0-------------------------------------|
	Magic magic magic!




NOTE:
Some of the notes are quite faint.
And i'm 89% sure thats how you play it.

[Tabbed by: Carlo Tabangin]
comments
print report bad tab
I want to post or [tab]
guest
You may want to rate the tab now too:
select rating
Please do not post tabs as comments. Select "correction" instead!