Oops, an error
Loading. Please wait.

Every Little Thing He Does Is Magic Tab

version 3
version 3

Whole song

by MYMP
3,502 views 1 this week
1 commentread comment
1 2 3 4 5
2 more votes to show rating
add to favorites
launch autoscroll
font size
0
reset
how to read this tab
guitar tuner
Autoscroll
slow
fast
+/-
esc
set tempo
stop
Help us to improve Ultimate-Guitar.com Take our survey!
×
Author
Difficulty
novice
INTRO (2x):
e|----0--------0---------0----------------|
B|------4--------4---------4--------------|
G|--4--------4---------4---------4-----4--|
D|-----------------------------2----------|
A|-0-------2---------0-------2-------x----|
E|---------------------------------4------|

VERSE 1:

though i've..
e|----0---------|--------0--------|--------0------|---------------|
B|------4-------|---------4-------|---------4-----|---------------|
G|--4-----------|-----4-----------|-----4---------|-------4-----4-|
D|--------------|-----------------|---------------|-----2---------|
A|-0------------|---2-------------|---0-----------|---2-------x---|
E|--------------|-----------------|---------------|---------4-----|
   tried before to tell him, all the feelings i have for him in my


e|----0------|------0-----|--------0-----|---------------|
B|------4----|-------4----|---------4----|---------------|
G|--4--------|---4--------|-----4--------|------4-----4--|
D|-----------|------------|--------------|----2----------|
A|-0---------|-2----------|---0----------|--2-------x----|
E|-----------|------------|--------------|--------4------|   
heart.......


every...
e|----0----------|---------0-----|---------0-------|------------------|
B|------4--------|-----------4---|----------4------|------------------|
G|--4------------|------4--------|------4----------|----------4-----4-|
D|---------------|---------------|-----------------|--------2---------|
A|-0-------------|----2----------|----0------------|------2-------x---|
E|---------------|---------------|-----------------|------------4-----|
   time that i come near him, i just lose my nerves as i've done from the


e|------------------------------|
B|-----3-5-----3-5------3-5--6--|
G|--1--3-5--1--3-5---1--3-5--5--|
D|--2-------2--------2----------|
A|------------------------------|
E|------------------------------|
start...


CHORUS:

cause every little..
e|-------0-0-----|--------0-0-------|
B|-------0-0-----|---5----5-5-------|
G|--4----4-4-----|---4----4-4-------|
D|--4----4-4-----|---2----2-2-------|
A|--2----2-2-----|------------------|
E|---------------|------------------|
    thing he does is magic... everything he

e|-------0-0--------|--------0-0-------|
B|-------0-0--------|---5----5-5-------|
G|--4----4-4--------|---4----4-4-------|
D|--4----4-4--------|---2----2-2-------|
A|--2----2-2--------|------------------|
E|------------------|------------------|
    does just turns me on........even though my


e|-------0-0--------|--------0-0-------|
B|-------0-0--------|---5----5-5-------|
G|--4----4-4--------|---4----4-4-------|
D|--4----4-4--------|---2----2-2-------|
A|--2----2-2--------|------------------|
E|------------------|------------------|
    life before was   tragic.....now i know my

e|-------0-0--------|--------0-0-------|
B|-------0-0--------|---5----5-5-------|
G|--4----4-4--------|---4----4-4-------|
D|--4----4-4--------|---2----2-2-------|
A|--2----2-2--------|------------------|
E|------------------|------------------|
   love for  him     goes...


e|------------------------------|
B|-----2-4-----2-4------2-4--5--|
G|--1--2-4--1--2-4---1--2-4--4--|
D|--2-------2--------2----------|
A|------------------------------|
E|------------------------------|
  on...


(REPEAT INTRO)

VERSE 2:

do i...
e|----0------------|------0------|-------0--------|-----------------|
B|------4----------|-------4-----|--------4-------|-----------------|
G|--4--------------|---4---------|----4-----------|------4-----4----|
D|-----------------|-------------|----------------|----2------------|
A|-0---------------|-2-----------|--0-------------|--2-------x------|
E|-----------------|-------------|----------------|--------4--------|
  have to tell the  story of a    thousand rainy    days since


e|----0--------|------0----|-------0-----|----------------|
B|------4------|-------4---|--------4----|----------------|
G|--4----------|---4-------|----4--------|------4-----4---|
D|-------------|-----------|-------------|----2-----------|
A|-0-----------|-2---------|--0----------|--2-------x-----|
E|-------------|-----------|-------------|--------4-------|
   we first met...


it's a...
e|----0-------|------0-------|---------0-------|-----------------|
B|------4-----|-------4------|----------4------|-----------------|
G|--4---------|---4----------|------4----------|------4-----4----|
D|------------|--------------|-----------------|----2------------|
A|-0----------|-2------------|----0------------|--2-------x------|
E|------------|--------------|-----------------|--------4--------|
   big enough  umbrella but it's always me who ends up



getting...
e|------------------------------|
B|-----3-5-----3-5------3-5--6--|
G|--1--3-5--1--3-5---1--3-5--5--|
D|--2-------2--------2----------|
A|------------------------------|
E|------------------------------|
   wet....


(REPEAT CHORUS 2x)


e|-------2----|------2-2-------|
B|-------0----|---5--5-5-------|
G|---4---4----|---4--4-4-------|
D|---4---4----|----------------|
A|------------|----------------|
E|------------|----------------|
  on...


BRIDGE:

e|-------2-2---|----2-2-----|----2-2----|-----2-2---|
B|-------0-0---|-5--5-5-----|----0-0----|--5--5-5---|
G|---4---4-4---|-4--4-4-----|-4--4-4----|--4--4-4---|
D|---4---4-4---|------------|-4--4-4----|-----------|
A|-------------|------------|-----------|-----------|
E|-------------|------------|-----------|-----------|
i resolve to    call him up a thousand  times a day


e|-------2-2---|----2-2-----|---------2-2---|----------2-2---|
B|-------0-0---|-5--5-5-----|---------0-0---|-------5--5-5---|
G|---4---4-4---|-4--4-4-----|------4--4-4---|-------4--4-4---|
D|---4---4-4---|------------|------4--4-4---|----------------|
A|-------------|------------|---------------|----------------|
E|-------------|------------|---------------|----------------|
and ask him if  he'll marry me in some old fashion way....



but my..
e|-------0-0-----|--------0-0-------|
B|-------0-0-----|---5----5-5-------|
G|--4----4-4-----|---4----4-4-------|
D|--4----4-4-----|---2----2-2-------|
A|--2----2-2-----|------------------|
E|---------------|------------------|
   silent fears have gripped me long

e|-------0-0-----|--------0-0-------|
B|-------0-0-----|---5----5-5-------|
G|--4----4-4-----|---4----4-4-------|
D|--4----4-4-----|---2----2-2-------|
A|--2----2-2-----|------------------|
E|---------------|------------------|
  before i reach the phone.. long 

e|-------0-0-----|
B|-------0-0-----|
G|--4----4-4-----|
D|--4----4-4-----|
A|--2----2-2-----|
E|---------------|
  before my tongue has stripped me

e|---------0-0-----|
B|-----5---5-5-----|
G|-----4---4-4-----|
D|-----2---2-2-----|
A|-----------------|
E|-----------------|
must i always be a--


e|------------------------------|
B|-----2-4-----2-4------2-4--5--|
G|--1--2-4--1--2-4---1--2-4--4--|
D|--2-------2--------2----------|
A|------------------------------|
E|------------------------------|
--lone

(REPEAT CHORUS 2x)


this one is also repeated 2x:

e|-------0-0-----|--------0-0-------|
B|-------0-0-----|---5----5-5-------|
G|--4----4-4-----|---4----4-4-------|
D|--4----4-4-----|---2----2-2-------|
A|--2----2-2-----|------------------|
E|---------------|------------------|
 every lil thing...every lil thing he does


e|-------0-0-----|--------0-0-------|
B|-------0-0-----|---5----5-5-------|
G|--4----4-4-----|---4----4-4-------|
D|--4----4-4-----|---2----2-2-------|
A|--2----2-2-----|------------------|
E|---------------|------------------|
every lil he         does is

e|------------------------------|
B|-----3-5-----3-5------3-5--6--|
G|--1--3-5--1--3-5---1--3-5--5--|
D|--2-------2--------2----------|
A|------------------------------|
E|------------------------------|
  magic, magic, magic... 
Suggest correction
Give kudos to tab author, rate the tab!
1 2 3 4 5
comments
print report bad tab
1 comment total.
0 reply
GuitaroooMan 123 Aug 17, 2006 04:04 PM

Finally! A good accurate tab for an M.Y.M.P. song, I love it. ;) Good job.

guest
You may want to rate the tab now too:
select rating
Wanna post a correction for this tab? Suggest correction