Oops, an error
Loading. Please wait.

For All Of My Life Tab

version 2
version 2

Whole song

by MYMP
7,542 views 1 this week
no commentswrite comment
1 2 3 4 5
please rate
add to favorites
launch autoscroll
font size
0
reset
how to read this tab
guitar tuner
Autoscroll
slow
fast
+/-
esc
set tempo
stop
Help us to improve Ultimate-Guitar.com Take our survey!
×
Author
April 23, 2005
12:30 am


Title: For All of My Life
ArtisT: MYMP
Album: Versions
Year: 2005
Track No.: 7

Tabbed by: John G. Bibal III
Tuning: Standard




NOTICE: Hello people, this is my tab for MYMP's For All of My Life.. I can;t guarantee that the chords
	I used were the ones that Chin used.. But, It sounds pretty close.. I'd Say about 96%...
	Well, you be the judge.. hehehe... Have Fun.. :p





Intro: (Before you start playing, pls. read the NOTICE above)

          E             G#m             A         D7                       
 
e|---------0-----*--------0------*----------0-*---0---*------|
B|-------0---0---*------0---0----*--------0---T---7---*------|
G|-------------0-*---------------*------------A---5---*------|
D|----2----------*----6-------6--*------7-----P---7---*------|
A|---------------*---------------*----7-------*---0---*------|
E|--0------------*--4------------*--5---------*-------*------|





Verse 1:

        E              Am               E               Am            E

e|---------0----*--------0-------*--------0----*--------0----0-----*--0--*------|
B|-------0---0--*----------1-----*------0---0--*-------------1-----*--0--*------|
G|--------------*------2---------*-------------*------2---2-----2--*--1--*------|
D|----2---------*----2-----------*----2--------*----2--------------*--2--*------|
A|--------------*----------------*-------------*-------------------*--2--*------|
E|--0-----------*--0-------------*--0----------*--0----------------*--0--*------|

         Come..  Beside me..  I'll tell you..    feels..


	E              Am               B           A5              E             

e|---------0-------*--------0-------*---2---*---0------0----*---------0------*------|
B|-------0---0-----*----------1-----*---4---T---0----0---0--*-------0---0----*------|
G|-----------------*------2---------*---4---A---2--2--------*-------------1--*------|
D|----2------------*----2-----------*---4---P---2-----------*----2-----------*------|
A|-----------------*--0-------------*---2---*---0-----------*----------------*------|
E|--0--------------*----------------*-------*---------------*--0-------------*------|

         There's.. Inside me..       Ready     To        Reveal..





Refrain:

       A5              G#m             C#m            F#?          F#        A?           Am 

e|----------0--*--------4--------*-------------4-*-----------*-----2----*---0--4----*-------0----*------|
B|--------0----*----------4--5-4-*--------5------T-------2---*-----2----*---5---5---*--1--1---1--*------|
G|------2------*-----------------*------6--------A-------4---*-----3----*---6-------*--2---------*------|
D|----2--------*-----------------*----6------6---P-----------*-----4----*---7-------*--2---------*------|
A|--0----------*----6------------*--4------------*----4------*-----4----*-----------*--0---------*------|
E|-------------*--4--------------*---------------*--2--------*---2------*-----------*------------*------|

 To Have... Embrace your heart.. Love..                                Things..      



        B?              B

e|--0-----0--------*----0----0----*------|
B|--7---0---0------*----0--0---0--T------|
G|--8--------------*----8---------A------|
D|--9---------7----*----9---------P------|
A|--9--------------*----9---------*------|
E|-----------------*----7---------*------|





Chorus 1:
	
         E             G#m             A                   F#?                       
 
e|---------0-----*--------0------*----------0-------*---------0------*------|
B|-------0---0---T------0---0----T--------0---------T----------------*------|
G|---------------A---------------A------------------A----------------*------|
D|----2----------P----6----------P------7-----------P------5----5----*------|
A|---------------*---------------*----7-------------*----4-----------*------|
E|--0------------*--4------------*--5---------------*--2-------------*------|

 Life..      the one... I will..   faithfully..  Forever..            For all of my
 


	E             G#m             A                   F#?                       
 
e|---------0-----*--------0------*----------0-------*---------0------*------|
B|-------0---0---T------0---0----T--------0---------T----------------*------|
G|---------------A---------------A------------------A----------------*------|
D|----2----------P----6----------P------7-----------P------5----5----*------|
A|---------------*---------------*----7-------------*----4-----------*------|
E|--0------------*--4------------*--5---------------*--2-------------*------|

 Life..      the one... I'll give.. Greatest Love..



(Repeat Intro)


Verse 2:


	E              Am               E               Am            E

e|---------0----*--------0-------*--------0----*--------0----0-----*--0--*------|
B|-------0---0--*----------1-----*------0---0--*-------------1-----*--0--*------|
G|--------------*------2---------*-------------*------2---2-----2--*--1--*------|
D|----2---------*----2-----------*----2--------*----2--------------*--2--*------|
A|--------------*----------------*-------------*-------------------*--2--*------|
E|--0-----------*--0-------------*--0----------*--0----------------*--0--*------|



	E                 Am            B          A5               E             

e|---------0-------*--------0-------*---2---*---0------0----*---------0------*------|
B|-------0---0-----*----------1-----*---4---T---0----0---0--*-------0---0----*------|
G|-----------------*------2---------*---4---A---2--2--------*-------------1--*------|
D|----2------------*----2-----------*---4---P---2-----------*----2-----------*------|
A|-----------------*--0-------------*---2---*---0-----------*----------------*------|
E|--0--------------*----------------*-------*---------------*--0-------------*------|



Refrain 2:

 
       A5              G#m             C#m           F#?           F#        A?           Am 

e|----------0--*--------4--------*-------------4-*-----------*-----2----*---0--4----*-------0----*------|
B|--------0----*----------4--5-4-*--------5------T-------2---*-----2----*---5---5---*--1--1---1--*------|
G|------2------*-----------------*------6--------A-------4---*-----3----*---6-------*--2---------*------|
D|----2--------*-----------------*----6------6---P-----------*-----4----*---7-------*--2---------*------|
A|--0----------*----6------------*--4------------*----4------*-----4----*-----------*--0---------*------|
E|-------------*--4--------------*---------------*--2--------*---2------*-----------*------------*------|




(Repeat Chorus 1)




Bridge:


           DM7?                 Bm?                
                    ^                  ^      
e|--------0---0---0-2--*---2------2---2-2---*------|
B|------2-------2---0--*---5----5---5---5---*------|
G|----2-----2----------*---4--4-------------*------| (Repeat 2x)
D|--0------------------*---2----------------*------|
A|---------------------*--------------------*------|
E|---------------------*--------------------*------|


      C          D5          F#?          F#        A?           A5
          ^         ^        
e|-----------*----------*-----------*-----2----*---0--4----*-------0----*-------|
B|--------5--*------5---*-------2---*-----2----*---5---5---*--0--0---0--*-------|
G|--------5--*------7---*-------4---*-----3----*---6-------*--2---------*-------|
D|-----5-----*----7-----*-----------*-----4----*---7-------*--2---------*-------|
A|-0-3-------*--5-------*----4------*-----4----*-----------*--0---------*-------|
E|-----------*----------*--2--------*---2------*-----------*------------*-------|



(repeat chorus 1)



Chorus 2:


	E              G#m               A                   F#?                       
 
e|---------0-----*--------0------*----------0-------*---------0------*------|
B|-------0---0---T------0---0----T--------0---------T----------------*------|
G|---------------A---------------A------------------A----------------*------|
D|----2----------P----6----------P------7-----------P------5----5----*------|
A|---------------*---------------*----7-------------*----4-----------*------|
E|--0------------*--4------------*--5---------------*--2-------------*------|




	E             G#m             A          D7?                E                    
 
e|---------0-----*--------0------*----------0-*---0---*-------------0----*------|
B|-------0---0---*------0---0----*--------0---T---7---*-------------0----*------|
G|-------------0-*---------------*------------A---5---*-------------1----*------|
D|----2----------*----6-------6--*------7-----P---7---*-------------2----*------|
A|---------------*---------------*----7-------*---0---*-------------2----*------|
E|--0------------*--4------------*--5---------*-------*-------------0----*------|


                               -= E      N      D=-




Chords I used:


  
    E    G#m    A    D7?   Am     B     A5   C#m   F#?   F#    A?    B?     B    DM7?  Bm?

e|--0--*--4--*--5--*--0--*--0--*--2--*--0--*--4--*--2--*--2--*--4--*--0--*--7--*--0--*--2--*------|
B|--0--*--4--*--5--*--7--*--1--*--4--*--0--*--5--*--2--*--2--*--5--*--7--*--7--*--2--*--5--*------|
G|--1--*--4--*--6--*--5--*--2--*--4--*--2--*--6--*--4--*--3--*--6--*--8--*--8--*--2--*--4--*------|
D|--2--*--6--*--7--*--7--*--2--*--4--*--2--*--6--*--3--*--4--*--7--*--9--*--9--*--0--*--2--*------|
A|--2--*--4--*--7--*--0--*--0--*--2--*--0--*--4--*--4--*--4--*-----*--9--*--9--*-----*--2--*------|
E|--0--*--4--*--5--*-----*-----*-----*-----*-----*--2--*--2--*-----*-----*--7--*-----*-----*------|



Lyrics:

Verse 1:

Come and lay here beside me
I'll tell you how I feel
There's a secret inside me
I'm ready to reveal


Refrain:

To have you close
embrace your heart
With my love
over and over
These are things that I promise
My Promise to you..



Chorus:

For all of my life
you are the one.. 
I will love you faithfully forever
all of my life
you are the one..
I'll Give to you my greatest love
For all of my Life... ooohh ooohh.. yeah.. yeah..



Verse 2:

Let me lay down beside you
There's something you should know
I pray that you decide too
Open your heart and let me show..


Refrain 2:

Enchanted worlds of fairytales
Are wonderland of love
These are things that I promise, 
My promise to you...

Repeat Chorus(without the oohs and yeah's)


Bridge:


All of my Life..
All of my Life..
All of my heart..
These are things that promise..


Repeat Chorus(2x)(without the oohs and yeah's)



Legend:

^ = upstroke


________________________________________________________________________________________
****************************************************************************************
Hello sa mga students ng Bicol University!! Mga schoolmates, hehe
Third Year na tayo!!! hi to: DAYON,DENNIS,REUBEN,KIMBERJOHN,ANTON,XYRUZ,JOEFFREI, at ang
pambansang bading si DEODEL hehe (joke lang) Si Joey ang tunay na bading.. hehehe..
at Hello rin sa mga taga II-Molave at II-Narra batch 2004-05.. hehe.. Hi rin kay
Angelli(gummy!!!)hehehehe.. at kay Janina.. MOLAVE 2004-05 RULEZZZZZ!!! :)	:p	
________________________________________________________________________________________
****************************************************************************************


Any Comments and/or suggestions, just e-mail me:
jayjaybibal@yahoo.com
or txt me at 09202551554
invite niyo rin ako sa friendster hehe..
Sabayan niyo na rin po nang testimonial.. plsss...
thanks..
Suggest correction
Give kudos to tab author, rate the tab!
1 2 3 4 5
comments
print report bad tab
guest
You may want to rate the tab now too:
select rating
Please do not post tabs as comments. Select "correction" instead!