Oops, an error
Loading. Please wait.

For All Of My Life Tab

version 5
version 5

Whole song

by MYMP
1,551 views 1 this week
1 commentread comment
1 2 3 4 5
please rate
add to favorites
launch autoscroll
font size
0
reset
how to read this tab
guitar tuner
Autoscroll
slow
fast
+/-
esc
set tempo
stop
Help us to improve Ultimate-Guitar.com Take our survey!
×
Contributor
ako nanaman po ulet! paul! For all of my life! Sana magustuhan nio tab ko!

Title: For All of My Life
Band: MYMP

* - dead string
/ - slide
p - pull off
h - hammered

intro:

      E
e|----0------------|
B|---0-0-----------|
G|--1---1----------|
D|-----------------|
A|-----------------|
E|-0---------------|
      G#m7
e|------0----------|
B|-----0-0---------|
G|----4---4--------|
D|-----------------|
A|-----------------|
E|-0-4-------------|

      A9sus
e|------0----------|
B|----0--0---------|
G|-----2--2--------|
D|-----------------|
A|-----------------|
E|-4-5-------------|


        Am (note strum nio pababa isang beses lng...)
e|-0---------------|
B|-1---------------|
G|-2---------------|
D|-2---------------|
A|-0---------------|
E|-----------------|


e|-----------------|
B|-----------------|
G|-----------------|
D|-----------------|
A|-----------------|
E|-----------------|

         E
e|-----------------|
B|-0---------------|
G|-1---------------| d2 kau na dumiskarte sa pluckings
D|-2---------------|
A|-2---------------|
E|-0---------------|
  come and lay here be

      Am/Esus-G
e|-0---------------|
B|-1---------------|
G|-2---------------|
D|-2---------------|
A|-0---------------|
E|-----------------|
side me, i'll


         E
e|-----------------|
B|-0---------------|
G|-1---------------|
D|-2---------------|
A|-2---------------|
E|-0---------------|
  show you how i feel

        Esus
e|-----------------|
B|-0---------------|
G|-2---------------|
D|-2---------------|
A|-2---------------|
E|-0---------------|


        E
e|-----------------|
B|-0---------------|
G|-1---------------|
D|-2---------------|
A|-2---------------|
E|-0---------------|
 there's a secret inside


         Am
e|-0---------------|
B|-1---------------|
G|-2---------------|
D|-2---------------|
A|-0---------------|
E|-----------------|
   me

        C#m7
e|-4---------------|
B|-5---------------|
G|-4---------------|
D|-6---------------|
A|-4---------------|
E|-----------------|
 i'm ready


         B9
e|-0---------------|
B|-0---------------|
G|-4---------------|
D|-4---------------|
A|-2---------------|
E|-----------------|
   to


         E
e|-----------------|
B|-0---------------|
G|-1---------------|
D|-2---------------|
A|-2---------------|
E|-0---------------|
  reveal..... to


        A9sus
e|-0---------------|
B|-0---------------|
G|-2---------------|
D|-2---------------|
A|-0---------------|
E|-----------------|
   have you close..... em

        G#m7
e|-4---------------|
B|-4---------------|
G|-4---------------|
D|-4---------------|
A|-6---------------|
E|-4---------------|
   brace your heart with

        C#m7
e|-4---------------|
B|-5---------------|
G|-4---------------|
D|-6---------------|
A|-4---------------|
E|-----------------|
  my love over and

        F#7
e|-4---------------|
B|-4---------------|
G|-4---------------|
D|-4---------------|
A|-4---------------|
E|-2---------------|
  over

        F#7
e|-4---------------|
B|-4---------------|
G|-4---------------|
D|-4---------------|
A|-4---------------|
E|-2---------------|
  this are things that i promise

         Asus
e|-0---------------|
B|-0---------------|
G|-2---------------|
D|-2---------------|
A|-0---------------|
E|-----------------|
  my promise

         B9sus
e|-0---------------|
B|-0---------------|
G|-4---------------|
D|-4---------------|
A|-2---------------|
E|-----------------|
    to you! For all of my

chorus: pareho lng ng intro

        E
e|----0------------|
B|---0-0-----------|
G|--1---1----------|
D|-----------------|
A|-----------------|
E|-0---------------|
  life

       G#m7
e|------0----------|
B|-----0-0---------|
G|----4---4--------|
D|-----------------|
A|-----------------|
E|-0-4-------------|
   the one, i will you

       A9sus
e|------0----------|
B|----0--0---------|
G|-----2--2--------|
D|-----------------|
A|-----------------|
E|-4-5-------------|
  faithfully

e|-0---------------|
B|-1---------------|
G|-2---------------|
D|-2---------------|
A|-0---------------|
E|-----------------|
   forever, for all of

        E
e|----0------------|
B|---0-0-----------|
G|--1---1----------|
D|-----------------|
A|-----------------|
E|-0---------------|
  my life you are


        G#m7
e|------0----------|
B|-----0-0---------|
G|----4---4--------|
D|-----------------|
A|-----------------|
E|-0-4-------------|
the one, i'll give to you my

         A9sus
e|------0----------|
B|----0--0---------|
G|-----2--2--------|
D|-----------------|
A|-----------------|
E|-4-5-------------|
  greatest love

         Am
e|-0---------------|
B|-1---------------|
G|-2---------------|
D|-2---------------|
A|-0---------------|
E|-----------------|
   for all of my life!


(gawin lng ulet to sa 2nd verse)

bridge:

       D9                   E9
e|-0---------------|      e|-0-|
B|-0---------------|      B|-0-|
G|-7---------------|      G|-9-|
D|-7---------------|      D|-9-|
A|-5---------------|      A|-7-|
E|-----------------|      E|---|
life....

       D9                    E9
e|-0---------------|      e|-0-|
B|-0---------------|      B|-0-|
G|-9---------------|      G|-7-|
D|-9---------------|      D|-7-|
A|-7---------------|      A|-5-|
E|-----------------|      E|---|
  all of my love

        B9                  D9
e|-0---------------|      e|-0-|
B|-0---------------|      B|-0-|
G|-4---------------|      G|-7-|
D|-4---------------|      D|-7-|
A|-2---------------|      A|-5-|
E|-----------------|      E|---|
   all of my heart

       C#m7
e|-4---------------|
B|-5---------------|
G|-4---------------|
D|-6---------------|
A|-4---------------|
E|-----------------|
  this are

       F#7
e|-4---------------|
B|-4---------------|
G|-4---------------|
D|-4---------------|
A|-4---------------|
E|-2---------------|
  things that i promise

      Asus
e|-0---------------|
B|-0---------------|
G|-2---------------|
D|-2---------------|
A|-0---------------|
E|-----------------|
  my promise

     B9sus
e|-0---------------|
B|-0---------------|
G|-4---------------|
D|-4---------------|
A|-2---------------|
E|-----------------|
to you! For all of my life!

(repeat chorus) (End)


i hope u like it! thanks! txt nio ko pag may gus2 pa kau ipatabs here's my number... 
and my email add sa facebook pauljohnsoriano@ymail.com/pauljhensoriano@yahoo.com! thanks!
comments
We did not receive enough feedback on this tab! Please rate:
print report bad tab
1 2 3 4 5
1 comment total.
0 reply
pauljohn04 33 wrote on April 10 2013, 09:34 am

Please read this Tab it's so easy to understand

I want to post or [tab]
guest
You may want to rate the tab now too:
select rating
Please do not post tabs as comments. Select "correction" instead!