Oops, an error
Loading. Please wait.

Kailan Tab

version 1
version 1

Whole song

Interactive

by MYMP
72,256 views 93 this week
5 commentsread comments
1 2 3 4 5
x 11
add to favorites
launch autoscroll
font size
0
reset
how to read this tab
guitar tuner
×
Best way to learn
"Kailan"
Autoscroll
slow
fast
+/-
esc
set tempo
stop
Author
[Intro]
      
      D#m?              C#            Bbm          D#m        C#          BM7
                                                       ^        ^
e|-------------|--------------|---1------1----|----------|----------|-----------2----|
B|--7-----7----|---6-----6----|---2----2------|-------7--|------6---|---------4-4----|
G|------8---8--|-------6---6--|---3-----------|-------8--|------6---|-------3---3----|
D|----8--------|-----6--------|---3--3--------|----8-----|----6-----|-----4----------|
A|-------------|---4----------|---------------|--6-------|--4-------|---2------------|
E|--7----------|--------------|---------------|----------|----------|----------------|

       F         A#sus4     Bb7    B      
e|-------1----|---------|---1---|--2------------------------------------------------|
B|-----1---1--|--6-6----|---3---|--4------------------------------------------------|
G|------------|--8---8--|---1---|--4------------------------------------------------|
D|------------|--8------|---3---|--4------------------------------------------------|
A|------------|---------|---1---|--2------------------------------------------------|
E|--1---------|---------|-------|---------------------------------------------------|


[Verse 1]

      F#            Bm           F#/BM7         F#       D#m      D#m       C#                           
                                        ^                                       ^
e|----------1--|--------1----|----------2--|--2-----2-|------------------|---------|
B|-------------|--2---2---2--|-------4--4--|--2---2---|-------7-------7--|-----6---|
G|-------3-----|-------------|-----3----3--|--3-3-----|-----8-------8----|-----6---|
D|-----4-------|-------------|---4---------|--4-------|---8-------8------|---6-----|
A|---4---------|--2----------|-------------|--4-------|-6-------6--------|-4-------|
E|-2-----------|-------------|-2-----------|--2-------|------------------|---------|

           B              G#m       G#m      G#m       G#m  
e|---------------4--|---------------------------------------------|
B|----------4--4----|---------4---------4---------4---------4-----|
G|--------4---------|-----------4---------4---------4---------4---|
D|------4-----------|------6----------6---------6---------6-------|
A|----2-------------|----6----------6---------6---------6---------|
E|------------------|--4----------4---------4---------4-----------|

      C#           C#        F#              B?               
                     ^
e|--4-----4----------4-|-2---------|-2----2-------2------|
B|--6-------6--------6-|-2---2-2---|-2--2---2---2---2----|
G|--6--6-----------6---|-3-3-----3-|-4--------4-4--------|
D|--6------------6-----|-4---------|-4----------4--------|
A|--4----------4-------|-4---------|-2-------------------|
E|---------------------|-2---------|-2-------------------|



[Refrain]

        B              C#         Bbm         D#m     C#         BM7
                                                 ^       ^             ^
e|--------------|-------------|-----------|--------|-------|----------------|
B|--------4-4---|---------6---|-------6---|------7-|-----6-|---------4-4----|
G|------4-----4-|-------6---6-|---------6-|------8-|-----6-|-------3---3----|
D|----4---------|-----6-------|----8------|----8---|---6---|-----4-----4----|
A|--2-----------|-2-4---------|--8--------|--6-----|-4-----|-0-2------------|
E|--------------|-------------|6----------|--------|-------|----------------|

        F       A#sus4    Bb
e|------1----|---------|--6-----|
B|----1---1--|---6-6---|--6-----|
G|-----------|---8---8-|--7-----|
D|-----------|---8-----|--8-----|
A|-----------|---------|--8-----|
E|--1--------|---------|--6-----|



[Verse 2]

       F#            Bm           F#/BM7         F#       D#m      D#m       C#                           
                                                                               ^
e|----------1--|--1-----1----|----------2--|--2----2--|------------------|-------------|
B|-------------|--2---2---2--|-------4-----|--2--2----|-------7-------7--|-----6-------|
G|-------3-----|--3-3--------|-----3-------|--3-------|-----8-------8----|-----6-------|
D|-----4-------|-------------|---4---------|--4-------|---8-------8------|---6---------|
A|---4---------|-------------|-------------|--4-------|-6-------6--------|-4-----------|
E|-2-----------|-------------|-2-----------|--2-------|------------------|-------------|

          B                              G#m       G#m      G#m       G#m  
                                 ^
e|-------------------------------2-|--------------------------------------------------|
B|----------4---4---------4---4--4-|-------4---------4---------4---------4------------|
G|--------4---4---4-----4---4----4-|---------4---------4---------4---------4----------|
D|------4-------------4------------|-----6----------6---------6---------6-------------|
A|----2-------------2--------------|---6----------6---------6---------6---------------|
E|---------------------------------|-4----------4---------4---------4-----------------|

     C#           C#        F#              B?               
                     ^
e|--4-----4----------4-|-2---------|-2----2-------2------|
B|--6-------6--------6-|-2---2-2---|-2--2---2---2---2----|
G|--6--6-----------6---|-3-3-----3-|-4--------4-4--------|
D|--6------------6-----|-4---------|-4----------4--------|
A|--4----------4-------|-4---------|-2-------------------|
E|---------------------|-2---------|-2-------------------|



[Refrain]

        B              C#         Bbm         D#m     C#         BM7
                                                 ^       ^             ^
e|--------------|-------------|-----------|--------|-------|-------------------------|
B|--------4-4---|---------6---|-------6---|------7-|-----6-|---------4-4-------------|
G|------4-----4-|-------6---6-|---------6-|------8-|-----6-|-------3---3-------------|
D|----4---------|-----6-------|----8------|----8---|---6---|-----4-----4-------------|
A|--2-----------|-2-4---------|--8--------|--6-----|-4-----|-0-2---------------------|
E|--------------|-------------|6----------|--------|-------|-------------------------|

       F        A#sus4    Bb
e|------1----|---------|--6-----|
B|----1---1--|---6-6---|--6-----|
G|-----------|---8---8-|--7-----|
D|-----------|---8-----|--8-----|
A|-----------|---------|--8-----|
E|--1--------|---------|--6-----|


[Chorus]

         D#m           G#m            C#             F#     
              ^               ^                             
e|---------------|------------4---|--4--4----|-----2------2----|
B|------------7--|----------4-4-4-|--6-------|-----2------2----|
G|------8-----8--|--------4-------|--6----6--|-----3------3----|
D|----8-----8----|----------------|--6-------|-----------------|
A|--6-----6------|-6--------------|--4-------|-----------------|
E|---------------|-----4----------|----------|--2----2--2------|

     B    C#   Bbm       D#m      C#             Bb7        
                                    ^
e|--2--|-4--|---6--|-6--------|-------|-----------1----1---1---|
B|--4--|-6--|---6--|-7------7-|----6--|-------3-----3--3-----3-|
G|--4--|-6--|---6--|-8--------|----6--|-----1---1------1-------|
D|--4--|-6--|---8--|-8----8---|--6----|---3------------3-------|
A|--2--|-4--|---8--|-6--6-----|4------|-1--------------1-------|
E|-----|----|---6--|----------|-------|------------------------|

         D#m          G#m             C#             F#     
              ^               ^                             
e|--------------|-------------4---|--4--4----|-----2------2-|
B|------------7-|-----------4-4-4-|--6-------|-----2------2-|
G|------8-----8-|---------4-------|--6----6--|-----3------3-|
D|----8-----8---|-----------------|--6-------|--------------|
A|--6-----6-----|--6--------------|--4-------|--------------|
E|--------------|------4----------|----------|--2----2--2---|

     B   C#   Bbm     D#m       C#          F#          
                                 ^
e|--2---4-----6--|-6--------|-------|------------2-----------|
B|--4---6-----6--|-7------7-|----6--|----------2-------------|
G|--4---6-----6--|-8--------|----6--|--------3---------------|
D|--4---6-----8--|-8----8---|--6----|------4-----------------|
A|--2---4-----8--|-6--6-----|4------|----4-------------------|
E|------------6--|----------|-------|--2---------------------|


[Instrumental]

e|---------------2--4/6--6--4--2---4/6--4--2---4/6------|
B|---------2--3--2--4/7--7--4--2---4/7--4--2---4/7------|
G|-1/3--3--3--4-----------------------------------------|
D|------4-------------------------------------------8-8-|
A|------------------------------------------------------|
E|------------------------------------------------------|

e|----------------2---2----------------2--4--6--9/11----------|
B|-------2/3-2--2---2---2---------2-3--2--4--7--9/11--11--7---|
G|-------3/4-3--------------1-1/3-3-4-------------------------|
D|-6--4-------------------------------------------------------|
A|------------------------------------------------------------|
E|------------------------------------------------------------|

e|-------------------------------2/4--2---|
B|---------------------------2-4-2/4--2---|
G|---6h8--6--------------3-4--------------|
D|----------6--4-4---4-4------------------|
A|----------------------------------------|
E|----------------------------------------|


[Verse 3]

       G#m       G#m      G#m       G#m  
e|-----------------------------------------------------------------|
B|---------4---------4---------4---------4-------------------------|
G|-----------4---------4---------4---------4-----------------------|
D|------6----------6---------6---------6---------------------------|
A|----6----------6---------6---------6-----------------------------|
E|--4----------4---------4---------4-------------------------------|

     C#           C#        F#         
                     ^
e|--4-----4----------4-|-2------------|
B|--6-------6--------6-|-2---2-2------|
G|--6--6-----------6---|-3-3-----3----|
D|--6------------6-----|-4------------|
A|--4----------4-------|-4------------|
E|---------------------|-2------------|


[Refrain]

        B              C#         Bbm         D#m     C#         BM7
                                                 ^       ^             ^
e|--------------|-------------|-----------|--------|-------|-------------------------|
B|--------4-4---|---------6---|-------6---|------7-|-----6-|---------4-4-------------|
G|------4-----4-|-------6---6-|---------6-|------8-|-----6-|-------3---3-------------|
D|----4---------|-----6-------|----8------|----8---|---6---|-----4-----4-------------|
A|--2-----------|-2-4---------|--8--------|--6-----|-4-----|-0-2---------------------|
E|--------------|-------------|6----------|--------|-------|-------------------------|

        F       A#sus4    Bb
e|------1----|---------|--6-----|
B|----1---1--|---6-6---|--6-----|
G|-----------|---8---8-|--7-----|
D|-----------|---8-----|--8-----|
A|-----------|---------|--8-----|
E|--1--------|---------|--6-----|


[Chorus 2]

         D#m                   G#m           C#            F#   
              ^                      ^                          
e|----------------------|------------4---|--4--4----|-----2---2-|
B|------------7---------|----------4-4-4-|--6-------|-----2---2-|
G|------8-----8--6--3--4|--------4-------|--6----6--|-----3---3-|
D|----8-----8-----------|----------------|--6-------|-----------|
A|--6-----6-------------|-6--------------|--4-------|-----------|
E|----------------------|-----4----------|----------|--2----2---|

    B    C#    Bbm       D#m      C#             Bb7        
                                    ^
e|--2--|-4--|---6--|-6-|-------|-------|-----------1----1---1----|
B|--4--|-6--|---6--|-7-|-----7-|----6--|-------3-----3--3-----3--|
G|--4--|-6--|---6--|-8-|-------|----6--|-----1---1------1--------|
D|--4--|-6--|---8--|-8-|---8---|--6----|---3------------3--------|
A|--2--|-4--|---8--|-6-|-6-----|4------|-1--------------1--------|
E|-----|----|---6--|---|-------|-------|-------------------------|

         D#m                  G#m           C#           F#   
              ^                                               
e|----------------------|--------------|--4--4----|-----2---2---|
B|------------7---------|-----------4--|--6-------|-----2---2---|
G|------8-----8--6--3--4|---------4----|--6----6--|-----3---3---|
D|----8-----8-----------|--------------|--6-------|-------------|
A|--6-----6-------------|--6-----------|--4-------|-------------|
E|----------------------|------4-------|----------|--2----2-----|

    B   C#     Bbm     D#m       C#          F#          
                                   ^
e|--2-|--4--|---6--|-6--------|-------|------------2-------------|
B|--4-|--6--|---6--|-7------7-|----6--|----------2---------------|
G|--4-|--6--|---6--|-8--------|----6--|--------3-----------------|
D|--4-|--6--|---8--|-8----8---|--6----|------4-------------------|
A|--2-|--4--|---8--|-6--6-----|4------|----4---------------------|
E|----|-----|---6--|----------|-------|--2-----------------------|

    B   C#   Bbm   D#m       C#            
e|--2---4-----6--|-6--------|-------|
B|--4---6-----6--|-7------7-|----6--|
G|--4---6-----6--|-8--------|----6--|
D|--4---6-----8--|-8----8---|--6----|
A|--2---4-----8--|-6--6-----|4------|
E|------------6--|----------|-------|


Lyrics:

[Verse 1]

Bakit kaya nangangamba
Sa tuwing ika'y nakikita
Sana nama'y magpakilala
Ilang ulit nang nagkabangga
Aklat kong dala'y pinulot mo pa
Di ka pa rin nagpakilala


[Refrain]

Bawat araw sinusundan
Di ka pa rin tumitingin
Anong aking dapat gawin


[Verse 2]

Bakit kaya umiiwas
Binti ko ba'y mayroong gasgas
Nais ko nang magpakilala
Dito'y meron sa puso ko
Munting puwang laan sayo
Maaari na ba'ng magpakilala


(repeat refrain)


[Chorus]

Kailan, kailan mo ba mapapansin
Ang aking lihim
Kahit anong aking gawin
di mo pinapansin

Kailan, kailan hahaplusin ang pusong
bitin na bitin
Kahit anong gawing lambing
Di mo pa rin pansin


[Instrumental]

(repeat 2nd part of verse 2)

(repeat refrain)

(repeat chorus)

Kahit anong aking gawin
Di mo pinapansin...



************************************

| /  Slide up
| h  Hammer-on
| ^  upstroke

************************************
Suggest correction
comments
print report bad tab
5 comments total. Showing first comments.
0 reply
melisande 10 Apr 13, 2005 08:00 PM

tibayun si john.. idol...

0 reply
benjie#20 121 Oct 19, 2005 08:20 PM

kuyaangganda ng pag kagawa nkha ko agad!!!

0 reply
pjbdomingo 480 Oct 20, 2005 01:55 AM

mababa yung tunog ng tab pero gumamit si Chin ng capo sa 1st fret sa kanta na yan. kaya ok na rin.

guest
You may want to rate the tab now too:
select rating
Wanna post a correction for this tab? Suggest correction