Oops, an error
Loading. Please wait.

Only Reminds Me Of You tab

version 3
version 3

Whole song

Interactive

by MYMP
7,868 views 15 this week
1 commentread comment
1 2 3 4 5
2 more votes to show rating
add to favorites
×
Save as Personal and add changes to this tab that will be seen only by you. Learn more ›
×
You can save this tab as Personal to edit and correct it or add notes. All changes will be seen only by you. Learn more »
launch autoscroll
font size
0
reset
how to read this tab
guitar tuner
edit
Autoscroll
slow
fast
+/-
esc
set tempo
stop
Author
Artist: MYMP
Tab by: Drew (a.k.a. blue saviour)
Email add: blue_saviour009@yahoo.com

Message for all Guitarist that will try my tab. This tab was not very accurate...
pls rate my tab and for comment pls post it.... and enjoy my tab

Ang song na ito ay dedicated sa aking Angel na si Marjorie joyce...
kung nababasa mo e2 thx po sa inspiration hehehe....
ahmm hope na mag iingatz ka lagi wag mo po papabayaan ung sarili mo...
kung may problem ka sabihin mo lng kc ako ung HERO mo eh...
basta d2 lng po ako... dami pa dapat ako sabihin pro hindi pede d2 eh... pag nag usap 
po tau....


Tuning: Standard tuning E

Intro:

e|------------------|--------------|--------------------------------|
B|--------------3---|--5/6—--6/8-8-|--------------------------------|
G|------------5-----|--------------|---------0--9---7---------------|
D|----------5-------|--------------|--------------------------------|
A|--------3---------|--------------|--------------------------------|
E|------------------|--------------|------7-------------------------|

e|----33---1---0-----------|------0---------------------------------|
B|----------------1----1---|--1-3----3--1-0-1-----------------------|
G|-------------------0---0-|--------------------Repeat--------------|
D|-------------------------|-------------------x2---Intro-----------|
A|----33-------------------|--0-0-----------------------------------|
E|-------------------------|---------3------------------------------|

Verse 1:

e|------------------3----------|------------------3-----------------|
B|------------3--1--------1----|-------------3--1-------------------|
G|---------0-------------------|----------0-------------------------|
D|------2----------------------|-------2----------------------------|
A|---3-----------------3-------|----x-------------------------------|
E|-----------------------------|-3----------------------------------|

e|----1-0------------------------0----------------------------------|
B|--------3-1------1------1---3-----3--1--0--1----------------------|
G|--------------0-----0---------------------------------------------|
D|------------------------------------------------------------------|
A|----3---3-3-------------0-----------------------------------------|
E|----------------------------------3-------------------------------|

e|------------------3----------|------------------3-----------------|
B|------------3--1--------1----|-------------3--1-------------------|
G|---------0-------------------|----------0-------------------------|
D|------2----------------------|-------2----------------------------|
A|---3-----------------3-------|----x-------------------------------|
E|-----------------------------|-3----------------------------------|

e|----1-0------------------------0----------------------------------|
B|--------3-1------1------1---3-----3--1--0--1----------------------|
G|--------------0-----0---------------------------------------------|
D|------------------------------------------------------------------|
A|----3---3-3-------------0-----------------------------------------|
E|----------------------------------3-------------------------------|

Pre-chorus
e|--------------------0---------------------------------------------|
B|-------------1-1--3---3---1--0------1h3--1------------------------|
G|----------2----------------------0--------------------------------|
D|-------2----------------------------------------------------------|
A|----0-------------------------------------------------------------|
E|----------------------3-------------------------------------------|

e|--------------------0---1---0-------------------------------------|
B|-------------1-1--3------------3----------------------------------|
G|----------2-----------------------5-5-----------------------------|
D|-------2----------------------------------------------------------|
A|----0-------------------------------------------------------------|
E|------------------------------------------------------------------|

Chorus:
e|------------------|--------------|--------------------------------|
B|--------------3---|--5/6—--6/8-8-|--------------------------------|
G|------------5-----|--------------|---------0--9---7---------------|
D|----------5-------|--------------|--------------------------------|
A|--------3---------|--------------|--------------------------------|
E|------------------|--------------|------7-------------------------|

e|----33---1---0-----------|------0---------------------------------|
B|----------------1----1---|--1-3----3--1-0-1-----------------------|
G|-------------------0---0-|----------------------------------------|
D|-------------------------|----------------------------------------|
A|----33-------------------|--0-0-----------------------------------|
E|-------------------------|---------3------------------------------|

e|------------------|--------------|--------------------------------|
B|--------------3---|--5/6—--6/8-8-|--------------------------------|
G|------------5-----|--------------|---------0--9---7---------------|
D|----------5-------|--------------|--------------------------------|
A|--------3---------|--------------|--------------------------------|
E|------------------|--------------|------7-------------------------|

e|----33---1---0-----------|------0---------------------------------|
B|----------------1----1---|--1-3----3--1-0-1-----------------------|
G|-------------------0---0-|----------------------------------------|
D|-------------------------|----------------------------------------|
A|----33-------------------|--0-0-----------------------------------|
E|-------------------------|---------3------------------------------|

e|--------------------|---------------------|
B|---------------1----|-----------1---------|
G|------------2-------|--------0------------|
D|---------2----------|-----2---------------|
A|------0-------------|---------------------|
E|--------------------|--3------------------|


Verse 2:
e|------------------3----------|------------------3-----------------|
B|------------3--1--------1----|-------------3--1-------------------|
G|---------0-------------------|----------0-------------------------|
D|------2----------------------|-------2----------------------------|
A|---3-----------------3-------|----x-------------------------------|
E|-----------------------------|-3----------------------------------|


e|----1-0------------------------0----------------------------------|
B|--------3-1------1------1---3-----3--1--0--1----------------------|
G|--------------0-----0---------------------------------------------|
D|------------------------------------------------------------------|
A|----3---3-3-------------0-----------------------------------------|
E|----------------------------------3-------------------------------|

e|------------------3----------|------------------3-----------------|
B|------------3--1--------1----|-------------3--1-------------------|
G|---------0-------------------|----------0-------------------------|
D|------2----------------------|-------2----------------------------|
A|---3-----------------3-------|----x-------------------------------|
E|-----------------------------|-3----------------------------------|

e|----1-0------------------------0----------------------------------|
B|--------3-1------1------1---3-----3--1--0--1----------------------|
G|--------------0-----0---------------------------------------------|
D|------------------------------------------------------------------|
A|----3---3-3-------------0-----------------------------------------|
E|----------------------------------3-------------------------------|

Pre-chorus
e|--------------------0---------------------------------------------|
B|-------------1-1--3---3---1--0------1h3--1------------------------|
G|----------2----------------------0--------------------------------|
D|-------2----------------------------------------------------------|
A|----0-------------------------------------------------------------|
E|----------------------3-------------------------------------------|

e|--------------------0---1---0-------------------------------------|
B|-------------1-1--3------------3----------------------------------|
G|----------2-----------------------5-5-----------------------------|
D|-------2----------------------------------------------------------|
A|----0-------------------------------------------------------------|
E|------------------------------------------------------------------|

Chorus:
e|------------------|--------------|--------------------------------|
B|--------------3---|--5/6—--6/8-8-|--------------------------------|
G|------------5-----|--------------|---------0--9---7---------------|
D|----------5-------|--------------|--------------------------------|
A|--------3---------|--------------|--------------------------------|
E|------------------|--------------|------7-------------------------|

e|----33---1---0-----------|------0---------------------------------|
B|----------------1----1---|--1-3----3--1-0-1-----------------------|
G|-------------------0---0-|----------------------------------------|
D|-------------------------|----------------------------------------|
A|----33-------------------|--0-0-----------------------------------|
E|-------------------------|---------3------------------------------|

e|------------------|--------------|--------------------------------|
B|--------------3---|--5/6—--6/8-8-|--------------------------------|
G|------------5-----|--------------|---------0--9---7---------------|
D|----------5-------|--------------|--------------------------------|
A|--------3---------|--------------|--------------------------------|
E|------------------|--------------|------7-------------------------|


e|----33---1---0-----------|------0---------------------------------|
B|----------------1----1---|--1-3----3--1-0-1-----------------------|
G|-------------------0---0-|----------------------------------------|
D|-------------------------|----------------------------------------|
A|----33-------------------|--0-0-----------------------------------|
E|-------------------------|---------3------------------------------|

Bridge:
e|--------------------|---------------------|
B|---------------1----|-----------1---------|
G|------------2-------|--------0------------|
D|---------2----------|-----2---------------|
A|------0-------------|---------------------|
E|--------------------|--3------------------|

e|-------------------0-------------0--1--0--------------0---4-3-3---|
B|-------------1-1-3---3--3--3-3--------------------1---------------|
G|----------2-------------------------------------0-----------------|
D|-------2-------------------------------------2--------------------|
A|----0-------------------------------------3-----------------------|
E|---------------------3--------------------------------------------|

e|--------------------|
B|-------------1------|
G|-----------0--------|
D|--------------------|
A|--------2-----------|
E|-----3--------------|

e|----------------3----| Strum Down
B|--------------1------| This Part (listen to the song for the timing)
G|------------0--------|
D|----------0----------|
A|-------2-------------|
E|----3----------------|

Pre-chorus
e|--------------------0---------------------------------------------|
B|-------------1-1--3---3---1--0------1h3--1------------------------|
G|----------2----------------------0--------------------------------|
D|-------2----------------------------------------------------------|
A|----0-------------------------------------------------------------|
E|----------------------3-------------------------------------------|

e|--------------------0---1---0-------------------------------------|
B|-------------1-1--3------------3----------------------------------|
G|----------2-----------------------5-5-----------------------------|
D|-------2----------------------------------------------------------|
A|----0-------------------------------------------------------------|
E|------------------------------------------------------------------|

Chorus:
e|------------------|--------------|--------------------------------|
B|--------------3---|--5/6—--6/8-8-|--------------------------------|
G|------------5-----|--------------|---------0--9---7---------------|
D|----------5-------|--------------|--------------------------------|
A|--------3---------|--------------|--------------------------------|
E|------------------|--------------|------7-------------------------|

e|----33---1---0-----------|------0---------------------------------|
B|----------------1----1---|--1-3----3--1-0-1-----------------------|
G|-------------------0---0-|----------------------------------------|
D|-------------------------|----------------------------------------|
A|----33-------------------|--0-0-----------------------------------|
E|-------------------------|---------3------------------------------|

e|------------------|--------------|--------------------------------|
B|--------------3---|--5/6—--6/8-8-|--------------------------------|
G|------------5-----|--------------|---------0--9---7---------------|
D|----------5-------|--------------|--------------------------------|
A|--------3---------|--------------|--------------------------------|
E|------------------|--------------|------7-------------------------|

e|----33---1---0-----------|------0---------------------------------|
B|----------------1----1---|--1-3----3--1-0-1-----------------------|
G|-------------------0---0-|----------------------------------------|
D|-------------------------|----------------------------------------|
A|----33-------------------|--0-0-----------------------------------|
E|-------------------------|---------3------------------------------|

e|------------------|--------------|--------------------------------|
B|--------------3---|--5/6—--6/8-8-|--------------------------------|
G|------------5-----|--------------|---------0--9---7---------------|
D|----------5-------|--------------|--------------------------------|
A|--------3---------|--------------|--------------------------------|
E|------------------|--------------|------7-------------------------|

e|----33---1---0-----------|------0---------------------------------|
B|----------------1----1---|--1-3----3--1-0-1-----------------------|
G|-------------------0---0-|----------------------------------------|
D|-------------------------|----------------------------------------|
A|----33-------------------|--0-0-----------------------------------|
E|-------------------------|---------3------------------------------|

e|------------------|--------------|--------------------------------|
B|--------------3---|--5/6—--6/8-8-|--------------------------------|
G|------------5-----|--------------|---------0--9---7---------------|
D|----------5-------|--------------|--------------------------------|
A|--------3---------|--------------|--------------------------------|
E|------------------|--------------|------7-------------------------|

e|----33---1---0-----------|------0---------------------------------|
B|----------------1----1---|--1-3----3--1-0-1-----------------------|
G|-------------------0---0-|----------------------------------------|
D|-------------------------|----------------------------------------|
A|----33-------------------|--0-0-----------------------------------|
E|-------------------------|---------3------------------------------|


e|--------------------|---------------------|
B|---------------1----|-----------1---------|
G|------------2-------|--------0------------|
D|---------2----------|-----2---------------|
A|------0-------------|---------------------|
E|--------------------|--3------------------|

e|-------------------0----------------|-------------0---------------|
B|-------------1-1-3---3—-1--0--1-----|-----------1-----------------|
G|----------2-------------------------|---------0-------------------|
D|-------2----------------------------|-------2---------------------|
A|----0-------------------------------|-----3-----------------------|
E|---------------------3--------------|-----------------------------|
                                                (Strum this part)

Add nyo nlng po ako sa frendster.... my email add is blue_saviour009@yahoo.com


Mga fwends ko sa kung saan -saan mag silabas na kau mga ADIK sa DOTA tigilan nyo na 
Mag bagong buhay na kau.... tulad ko..... hehehehe
Cge ingatz po kau....

            
            
Suggest correction
Creating personal tab
Creating personal tab
You can edit any tab online and save it as your Personal.

You can edit, replace or remove any tab part or add personal notes – all changes will be seen only by you.

Personal tabs can be accessed anytime from any device, even offline.
Learn more »
Give kudos to tab author, rate the tab!
1 2 3 4 5
comments
print report bad tab
1 comment total.
0 reply
paulnmt 10 Apr 30, 2008 05:54 AM

gago knopya m lng ung s 1 e. .

guest
You may want to rate the tab now too:
select rating
Wanna post a correction for this tab? Suggest correction