Oops, an error
Loading. Please wait.

Power Of Two ukulele

by MYMP
1,478 views 33 this week
no commentswrite comment
1 2 3 4 5
3 more votes to show rating
add to favorites
×
Save as Personal and add changes to this tab that will be seen only by you. Learn more ›
×
You can save this tab as Personal to edit and correct it or add notes. All changes will be seen only by you. Learn more »
launch autoscroll
font size
0
reset
transpose
0
reset
simplify chords
display chords
guitar tuner
edit
Autoscroll
slow
fast
+/-
esc
set tempo
stop
Author
Difficulty
Strumming
There is no strumming pattern for this song yet. and get +5 IQ
Power of Two by MYMP
Tabbed by masterbabidi


Listen to the song if you find this difficult to follow. Hope you like it!



s - slide
h - hammer
**** - tap on ukulele


intro:

|------------------------|
|------------------------|             you can either do this part or not
|--3s2--0--0h2--0--------|
|------------------0--2--|


    Bm          C           F           C
|-------2---*---3---3---*---0---0---*---3---3-3-3---|
|-------2---*---0---0---*---1---1---*---0---0-0-0---|
|---2-------*---0---0---*---0---0---*---0---0-0-0---|
|-------4---*---0---0---*---2---2---*---0---0-0-0---|


    C           G           Dm          Dm
|-------3---*---2---2---*---0---0---*---0---0-0-0---|
|-------0---*---3---3---*---0h1-1---*---1---1-1-1---|            repeat 2x from Bm
|---0-------*---2---2---*---2---2---*---2---2-2-2---|
|-------0---*---0---0---*---2---2---*---2---2-2-2---|




Verse 1:


Bm    C           F      C
  Now the parking lot is empty
C      G         Dm       Dm
  Everyones gone someplace
Bm       C             F             C
  I pick you up and in the trunk Ive packed
    C            G       Dm       Dm
  A cooler and a two-day suitcase
Bm             C          F       C
  Cause theres a place we like to drive
  C         G    Dm       Dm
  Way out in the country
  Bm         C          F          C
  Five miles out of the city limit were singing
          C      G         Dm       Dm       G G
  And your hands upon my knee



Chorus:

              C                        C7
|-----------------3---*---3---3-3-3--------1---*---1---1-1-1---|
|-----------------0---*---0---0-0-0--------0---*---0---0-0-0---|
|-------------0-------*---0---0-0-0----0-------*---0---0-0-0---|
|-----------------0---*---0---0-0-0--------0---*---0---0-0-0---|

  So were okay                Were fine
 

              F                        G
|-----------------0---*---0---0-0-0--------2---*---2---2-2-2---|
|-----------------1---*---1---1-1-1--------3---*---3---3-3-3---|
|-------------0-------*---0---0-0-0----2-------*---2---2-2-2---|
|-----------------2---*---2---2-2-2--------0---*---0---0-0-0---|

  Baby Im here        to  stop your crying


                      C                         C7
|-------------------------3---*---3---3-3-3---------1---*---1---1-1-1---|
|-------------------------0---*---0---0-0-0---------0---*---0---0-0-0---|
|---------------------0-------*---0---0-0-0-----0-------*---0---0-0-0---|
|-------------------------0---*---0---0-0-0---------0---*---0---0-0-0---|

  Chase all the ghosts            from your head

  
                       F                        G
|--------------------------0---*---0---0-0-0--------2---*---2---2-2-2---|
|--------------------------1---*---1---1-1-1--------3---*---3---3-3-3---|
|----------------------0-------*---0---0-0-0----2-------*---2---2-2-2---|
|--------------------------2---*---2---2-2-2--------0---*---0---0-0-0---|
 
  Im stronger than the monster     beneath your bed

               
                   F                        Dm
|----------------------0---*---0---0-0-0----------0---*---0---0-0-0---|
|----------------------1---*---1---1-1-1----------1---*---1---1-1-1---|
|------------------0-------*---0---0-0-0------2-------*---2---2-2-2---|
|----------------------2---*---2---2-2-2----------2---*---2---2-2-2---|
  Smarter than the tricks played on your heart            Well look at them


    C                G           F           F
|-------3----------------2---*---0---0---*---0---0-0-0---|
|-------0----------------3---*---1---1---*---1---1-1-1---|
|---0----------------2-------*---0---0---*---0---0-0-0---|
|-------0----------------0---*---2---2---*---2---2-2-2---|  

  together then well take them  apart        Adding up the 


    Dm                            F
|-------0---*---0---0-0-0-------------0---*---0---0-0-0---|
|-------1---*---1---1-1-1-------------1---*---1---1-1-1---|
|---2-------*---2---2-2-2---------0-------*---0---0-0-0---|
|-------2---*---2---2-2-2-------------2---*---2---2-2-2---|

    total of    a love thats true


           G  G                         
|----------2--2--------------------|
|----------3--3--------------------|
|----------2--2--------------------|
|----------0--0--------------------|

  Multiply life by the power of 


      Bm          C           F           C
|---------2---*---3---3---*---0---0---*---3---3-3-3---|
|---------2---*---0---0---*---1---1---*---0---0-0-0---|
|-----2-------*---0---0---*---0---0---*---0---0-0-0---|
|---------4---*---0---0---*---2---2---*---0---0-0-0---|

  two


    C           G           Dm          Dm
|-------3---*---2---2---*---0---0---*---0---0-0-0---|
|-------0---*---3---3---*---0h1-1---*---1---1-1-1---|        
|---0-------*---2---2---*---2---2---*---2---2-2-2---|
|-------0---*---0---0---*---2---2---*---2---2-2-2---|




Verse 2:

Bm         C               F     C
  You know the things that I am afraid of
C        G         Dm       Dm
  Im not afraid to tell
Bm       C             F        C
  And if we ever leave a legacy
C            G      Dm         Dm
  Its that we loved each other well
Bm               C              F       C
  Cause Ive seen the shadows of so many people
  C         G                Dm       Dm
  Trying on the treasures of youth
                Bm        C            F       C
  But a fall of fancy and fast ends in a fatal crash
         C           G   Dm              Dm       G G
  And Im glad we got off to tell you the truth



Chorus:

                 C         C7  
  Cause were okay were fine
              F               G
  Baby Im here to stop your crying
                C                C7 
  Chase all the ghosts from your head
                       F                       G
  Im stronger than the monster beneath your bed
                   F                          Dm
  Smarter than the tricks played on your heart
                      C                G          F     F
  Well look at them together then well take them apart
                Dm                        F
  Adding up the total of a love thats true
           G    G   
  Multiply life by the power of two



Adlib:  Bm C F C
       C G Dm   



Bridge: 

Dm                         F
  All the shiny little trinkets of temptation
            C              G         F
  Something new instead of something old
Dm                       F
  All you gotta do is scratch beneath the surface
          C  G    Dm
  And its fools gold
    F  C   Dm
  Fools gold
    F  C   Dm
  Fools gold



Bm    C                  F           C
  Now were talking about a difficult thing
          C     G           Dm       Dm
  And your eyes are getting wet
     Bm          C             F           C
  It took us for better and it took us for worse
C      G           Dm       Dm
  Dont you ever forget it
Bm           C         F              C
  Now the steel bars between me and a promise
C          G         Dm       Dm
  Suddenly bend with ease
Bm            C          F       C
  The closer Im bound in love to you
C             G         Dm       Dm
  The closer I am to free



Chorus:

                 C         C7  
  So were okay were fine
              F               G
  Baby Im here to stop your crying
                C                C7 
  Chase all the ghosts from your head
                       F                       G
  Im stronger than the monster beneath your bed
                   F                          Dm
  Smarter than the tricks played on your heart
                      C                G          F     F
  Well look at them together then well take them apart
                Dm                        F
  Adding up the total of a love thats true
           G    G   
  Multiply life by the power of two


Coda:  Bm C F C
       C G Dm   repeat
       

            
            
Suggest correction
Creating personal tab
Creating personal tab
You can edit any tab online and save it as your Personal.

You can edit, replace or remove any tab part or add personal notes – all changes will be seen only by you.

Personal tabs can be accessed anytime from any device, even offline.
Learn more »
Give kudos to tab author, rate the tab!
1 2 3 4 5
comments
print report bad tab
guest
You may want to rate the tab now too:
select rating
Wanna post a correction for this tab? Suggest correction