Oops, an error
Loading. Please wait.

Sway Tab

by MYMP
25,868 views 18 this week
no commentswrite comment
1 2 3 4 5
excellent!
x 4
add to favorites
launch autoscroll
font size
0
reset
how to read this tab
guitar tuner
Tab Pro tools
  • play this tab
  • loop segment
  • change instrument
  • show fretboard
  • metronome
×
Best way to learn
"Sway"
Autoscroll
slow
fast
+/-
esc
set tempo
stop
Contributor
Intro:

e|-------------------------------|
B|-------------------------------|
G|---2-1-2---2-1-2---------------|
D|-0-------2---------------------|x2
A|-------------------------------|
E|-------------------------------|
  A          C#m            D               E
|-------------4--------------2--------------0------------|
|-2-----------5--------------3--------------0------------|
|-2-----------6--------------2--------------1------------|
|-2-----------6-----------------------------2------------|
|-0-----------4-----------------------------2------------|
|-------------4-----------------------------0------------|
 Don't stray, don't ever go away.  I should be much too smart
for this you know it gets the better of me

e--------4------2----0-----|
B--2-----5------3----0-----|
G--2-----6------2----1-----|
D--2-----6------0----2-----|
A--0-----4-----------2-----|
E--------------------0-----|
   Sometimes, when you and I collide I fall into an ocean of you,
pull me out in time

e--2-----4------2----2-----|
B--2-----5------3----3-----|
G--2-----6------2----2-----|
D--4-----6------0----0-----|
A--4-----4-----------------|
E--2-----------------------|
Don't let me drown, let me down  I saw it's all because of you

e--------4------2----2-----|
B--2-----5------3----3-----|
G--2-----6------2----2-----|
D--2-----6------0----0-----|
A--0-----4-----------------|
E--------------------------|
   And here i go, losing my control.  I'm practicing your name so
I can say is to your face


--------4-------2----0-----|
B--2-----5------3----1-----|
G--2-----6------2----2-----|
D--2-----6------0----2-----|
A--0-----4-----------0-----|
E--------------------0-----|
 It doesn't seem right, to look you in the eye, Let all the
things you mean to me come tumbling out my mouth


e--2-----4------2----0-----|
B--2-----5------3----0-----|
G--2-----6------2----1-----|
D--4-----6------0----2-----|
A--4-----4-----------2-----|
E--2-----------------0-----|

Indeed it's time to tell you why I say it's infinatly true

Chorus:
e-------0----2----4---|
B--1----0----2----5---|
G--1----1----2----6---|
D--1----2----4----6---|
A--0----2----4----5---|
E-------0----2--------|
   Say you'll stay, don't come and goe Like you do
   Sway my way, yeah I need to know All about


Then verse,Chorus,Chorus^_^benj_tm  rulezz
comments
print report bad tab
I want to post or [tab]
guest
You may want to rate the tab now too:
select rating
Please do not post tabs as comments. Select "correction" instead!