Oops, an error
Loading. Please wait.

Whenever Wherever Whatever tab

by MYMP
4,522 views 6 this week
no commentswrite comment
1 2 3 4 5
x 5
add to favorites
×
Save as Personal and add changes to this tab that will be seen only by you. Learn more ›
×
You can save this tab as Personal to edit and correct it or add notes. All changes will be seen only by you. Learn more »
launch autoscroll
font size
0
reset
how to read this tab
guitar tuner
edit
Autoscroll
slow
fast
+/-
esc
set tempo
stop
Song         : Whenever Wherever Whatever
Artist       : MYMP
Album        : Versions

Transcribe by: Walter Michael De la Cruz - SLU Baguio City - 09224012464
             (Walterfdelacruz@yahoo.com)                                    

Tabbed       : April 1, 2005                                                              

Note:        Apply Plucking Here


Intro:

           AM7                      F#m
E|-----------------------------------2-----------|
B|------5--7---------------------2--------2--t---|
G|----6--6---6-6-6h7-6--------2----2---2-----a---|
D|---7---------------------4-----------------p---|
A|-0---------------------------------------------|
E|-----------------------2-----------------------|

   Bm       -    E                       AM7
E|-------2-2—2h4—4s5--5-----4--2--0-*----------------|
B|----------------------------------*----5-5-----5---|
G|-----2----------------------------*---6-6-----6----|
D|---4------------------------------*--7-------7-----|
A|-2------------------7---7---------*-0-------0------|
E|----------------------------------*----------------|


Verse 1:

            AM7                           F#m
E|---------------------------------*------------------------|
B|--------5-------7---------5------*---------10------10-----|
G|------6------6-------6-----------*-------9------9---------|
D|----7----------------------------*----11------------------|
A|-0-------------------------------*-9----------------------|
E|---------------------------------*------------------------|
         Lead me on girl if you must  Take my heart and my love


    Bm                E
E|------------*--------------------------------------|
B|----------3-*-------------7-----------5---7---5----|
G|-------2----*----------9-----9------6---6---6------|
D|-----4------*-------9-------------7----------------|
A|--2---------*----7--------------0------------------|
E|------------*--------------------------------------|
    Take of me  all that you want



       F#m                     F#m
E|--------------2-------------------2---------------------|
B|---------2-------2----------2---------2-----------------|
G|-------2---2--------------2---2-------------------------|
D|-----4------------------4-------------------------------|
A|--------------------------------------------------------|
E|--2-------------------2---------------------------------|
  And if there's a thing that you need

        AM7
E|----------------4----4----5-----(4)---------------------|
B|--------5-----------------------------------------------|
G|------6---6---------------------------------------------|
D|----7---------------------------------------------------|
A|--0-------------0----0----0-----------------------------|
E|--------------------------------------------------------|
   I'd give you breath that I breathe

      Bm                   E
E|-------------2-------------------------0--------------------|
B|----------3---------------------0---------------------------|
G|-------4---------------------------1------------------------|
D|-----4-----------------------2------------------------------|
A|---2----------------------2---------------------------------|
E|-----------------------0------------------------------------|
 'N if ever you yearn for the love in me

Coda:
       DM7        C#m        Bm         AM7
E|-----------------------------2----------------4--4--5—(4)---|
B|------5---------5--------3-----3----------5-----------------|
G|----------------------------------------6--6----------------|
D|--------------------------------------7---------------------|
A|------5---------4--------2-----------0--------0--0--0-------|
E|------------------------------------------------------------|
    Whenever   Wherever  Whatever        baby

Verse 2:

          AM7                                  F#m
E|---------------------------------*------------------------|
B|--------5-------7---------5------*---------10------10-----|
G|------6------6-------6-----------*-------9------9---------|
D|----7----------------------------*----11------------------|
A|-0-------------------------------*-9----------------------|
E|---------------------------------*------------------------|
   Wish I knew if I could          Be the one that you would


    Bm                E
E|------------*--------------------------------------------|
B|----------3-*-------------7------------5---7---5---------|
G|-------2----*----------9-----9-------6---6---6-----------|
D|-----4------*-------9--------------7---------------------|
A|--2---------*----7---------------0-----------------------|
E|------------*--------------------------------------------|
   love forever and a day baby



       F#m                     F#m
E|--------------2-------------------2---------------------|
B|---------2-------2----------2---------2-----------------|
G|-------2---2--------------2---2-------------------------|
D|-----4------------------4-------------------------------|
A|--------------------------------------------------------|
E|--2-------------------2---------------------------------|
  And if there's a thing that you need


        AM7
E|----------------4----4----5-----(4)---------------------|
B|--------5-----------------------------------------------|
G|------6---6---------------------------------------------|
D|----7---------------------------------------------------|
A|--0-------------0----0----0-----------------------------|
E|--------------------------------------------------------|
    For you 'n your blood I would bleed


      Bm                   E
E|-------------2-------------------------0--------------------|
B|----------3---------------------0---------------------------|
G|-------4---------------------------1------------------------|
D|-----4-----------------------2------------------------------|
A|---2----------------------2---------------------------------|
E|-----------------------0------------------------------------|
 'N if ever you yearn for the love in me

Coda:
       DM7         C#m        Bm         AM7
E|-----------------------------2----------------4--4--5—(4)---|
B|------5---------5--------3-----3----------5-----------------|
G|----------------------------------------6--6----------------|
D|--------------------------------------7---------------------|
A|------5---------4--------2-----------0--------0--0--0-------|
E|------------------------------------------------------------|
    Whenever Wherever Whatever      baby



Comments,questions?? send me a message in friendster at Walterfdelacruz@yahoo.com or you 
text me or call me at 09224012464
Suggest correction
Creating personal tab
Creating personal tab
You can edit any tab online and save it as your Personal.

You can edit, replace or remove any tab part or add personal notes – all changes will be seen only by you.

Personal tabs can be accessed anytime from any device, even offline.
Learn more »
comments
print report bad tab
guest
You may want to rate the tab now too:
select rating
Wanna post a correction for this tab? Suggest correction