Oops, an error
Loading. Please wait.

Boy Who Ran Away Bass Tab

1,260 views 1 this week
no commentswrite comment
1 2 3 4 5
please rate
add to favorites
launch autoscroll
font size
0
reset
guitar tuner
Autoscroll
slow
fast
+/-
esc
set tempo
stop
Help us to improve Ultimate-Guitar.com Take our survey!
×
-------------------------------------------------------------------------------
			     The Boy Who Ran Away - Mystery Jets
-------------------------------------------------------------------------------

Tabbed By : Ross
e-mail: diamonddogsrdch@hotmail.com

Tuning:eadg

Intro
G|-------------------------------------------------------------------------------|
D|-------------------------------------------------------------------------------|
A|----------------------222224444666667777--------4------------------------------|
E|--0000 22222 444444-----------------------------------2-----000022244444-------|

Verse
G|-------------------------------------------------------------------------------|
D|-------------------------------------------------------------------------------|
A|---------------------------11-12-11-12-11--------------------------------------|
E|---77--\\-444--//-9----9-12------------------------end of verse - (7)----------|

chorus
G|------666--------------------------------------------------------------------|
D|---------7777----------------------------------------------------------------|
A|-----------------------------------------------------------------------------|
E|--------------2-0------------------------------------------------------------|(x2)

Verse again, then....

G|-------------------------------------------------------------------------------|
D|---------4-----4---------------------------------------------------------------|
A|-------------------4-----------------------------------------------------------|
E|---0---------------------2-----------------------------------------------------|
... then chorus again, then... lo la lo la lo...:

G|-----------------------------------------------------------------------------|
D|-----------------------------------------------------------------------------|
A|----4--0----------4----0--------4----0-----------4----0----------------------|
E|----------2----------------2------------------------------2------------------|
REST  ..........then chourus again

then verse (about 7 times, ive forgotten)

then intro again

ending :
G|---------------------------------------------------------------------------|
D|------------------------------------------22222444446666--9-7-6-4-2--------|
A|------------------------2224444666667777-----------------------------------|
E|-000000222222444445555-----------------------------------------------------|

| /  slide up
| \  slide down
| h  hammer-on
| p  pull-off
| ~  vibrato
| +  harmonic
| x  Mute note
===============================================================================
Suggest correction
What's this?
You can suggest a correction to this tab. Community and Mods will review your correction and vote to approve or reject it.
comments
We did not receive enough feedback on this tab! Please rate:
print report bad tab
1 2 3 4 5
guest
You may want to rate the tab now too:
select rating
Please do not post tabs as comments. Select "correction" instead!