Oops, an error
Loading. Please wait.

Dreaming Of Another World Tab

version 1
version 1

Intro

Whole song

2,641 views 3 this week
no commentswrite comment
1 2 3 4 5
please rate
add to favorites
launch autoscroll
font size
0
reset
how to read this tab
guitar tuner
Tab Pro tools
  • play this tab
  • loop segment
  • change instrument
  • show fretboard
  • metronome
×
Best way to learn
"Dreaming Of Another World"
Autoscroll
slow
fast
+/-
esc
set tempo
stop
Contributor
Difficulty
intermediate
-------------------------------------------------------------------------------
                             DREAMING OF ANOTHER WORLD - Mystery jets
-------------------------------------------------------------------------------
Tabbed by: 052947065
Email: Danny__lewis@hotmail.com

Tuning: Standard

e|---------------------------------------------------------------------------|
B|---------------------------------------------------------------------------|
G|---------------------------------7----7-9-9br11-7---7------7---------------|
D|--0-----4-5-4h5p4------4--------------------------9---9-/9---9\------------|
A|---/5-5-----------5-/5---5-------------------------------------------------|
E|---------------------------/7-10----7--------------------------------------|

I only put this as intermediate, as it takes a while to get the timing perfect, but 
it really.


The rest is pretty much covered by the other tab. However, when
playing the synth part, I like to use my index finger to cover all the
second fret notes, then my 4th finger to cover the 3rd fret note to
make the D chord. This allows me to play the full D chord, and
have the G and E string ring out, whilst I play the rest of
the synth notes with my 4th finger, for a more fuller sound.
I hope that made sense.

Good luck!


************************************

| /   slide up
| \   slide down
| h   hammer-on
| p   pull-off
| ~   vibrato
| +   harmonic
| x   Mute note
| b   Bend
| pb  Pre-bend
| br  Bend release
| pbr Pre-bend release
| brb Bend release bend

************************************
comments
We did not receive enough feedback on this tab! Please rate:
print report bad tab
1 2 3 4 5
I want to post or [tab]
guest
You may want to rate the tab now too:
select rating
Please do not post tabs as comments. Select "correction" instead!