Oops, an error
Loading. Please wait.

Dreaming Of Another World Tab

version 1
version 1

Whole song

7,431 views 1 this week
no commentswrite comment
1 2 3 4 5
1 last vote to show rating
add to favorites
launch autoscroll
font size
0
reset
how to read this tab
guitar tuner
Autoscroll
slow
fast
+/-
esc
set tempo
stop
Help us to improve Ultimate-Guitar.com Take our survey!
×
Artist : Mystery Jets
Song   : Dreaming of Another World

nowhere near perfect but there are no tabs available for this awesome song so this is 
i play it anyway enjoy!


intro


e|-----------------------------------7----------------------------|
B|-----------------------------------7----------------------------|
G|-----------------------------------7----7-9-9b11-7--7-----------|
D|-----------4-5-4--5-4------------------------------9--9--7------|
A|--slide5-5--5---5-----5---------------------------------9--9----|
E|-------------------------slide7-10----7-------------------------|


synth riff


e|-2----------------------------------------------------------------|
B|--3-2-3---2-3-2---------------------------------------------------|
G|----------------4-2-----------------------------------------------|
D|------------------------------------------------------------------|
A|------------------------------------------------------------------|
E|------------------------------------------------------------------|

chords in the verse and chorus are

D A Bm A

The way the are strummed though should sound like this

     D             D      A      Bm           Bm       A
e|-2-2-2-2------2-2-2-2---0----2-2-2-2------2-2-2-2----0------------|
B|-3-3-3-3------3-3-3-3---2----3-3-3-3------3-3-3-3----2------------|
G|-2-2-2-2------2-2-2-2---2----4-4-4-4------4-4-4-4----2------------|
D|-0-0-0-0------0-0-0-0---2----4-4-4-4------4-4-4-4----2------------|
A|------------------------0----2-2-2-2------2-2-2-2----0------------|
E|------------------------------------------------------------------|

the "and you
always seem to make it home alright"
goes D A Bm
Suggest correction
Give kudos to tab author, rate the tab!
1 2 3 4 5
comments
print report bad tab
guest
You may want to rate the tab now too:
select rating
Wanna post a correction for this tab? Suggest correction