Oops, an error
Loading. Please wait.

Hand Me Down Bass Tab

version 1
version 1

Whole song

Interactive

852 views 9 this week
no commentswrite comment
1 2 3 4 5
please rate
add to favorites
launch autoscroll
font size
0
reset
guitar tuner
Autoscroll
slow
fast
+/-
esc
set tempo
stop
Help us to improve Ultimate-Guitar.com Take our survey!
×
Author
-------------------------------------------------------------------------------
			     Hand Me Down – Mystery Jets
-------------------------------------------------------------------------------

Tabbed By : Clowesy
e-mail: eleanorclowes@hotmail.com

Tuning: Standard

Riff 1:
G|---------------------------------------------------------------------------|
D|---------------------------------------------------------------------------|
A|3--3-6-5-3------6-5-3------6-5-3------5-6-5--------------------------------|
E|-----------3--3-------4--4-------1--1--------------------------------------|

Riff 2:
G|---------------------------------------------------------------------------|
D|----------------5----------------------------------------------------------|
A|3--3-5-6-3/6--6---8-6------5----------5-6-5--------------------------------|
E|----------------------6--6---8-6-3--3--------------------------------------|

Riff 3:
G|--------------3------------------------------------------------------------|
D|----1----3--------------1----3---------------------------------------------|
A|3------------------3--------------1----------------------------------------|
E|---------------------------------------------------------------------------|

Riff 4:
G|-----------------------------3-3--3-3--------------------------------------|
D|--------1-1--1-1--3--3--3-3------------3----------1-1--1-1-3-3-------------|
A|3--3-3------------------------------------3--3-3-----------------1---------|
E|---------------------------------------------------------------------------|

Riff 5:
G|---------------------------3-3-3-3-----------------------------------------|
D|--------1-1-1-1-3--3--3-3----------3----------1-1-1-1--3------1------------|
A|3--3-3--------------------------------3--3-3--------------3----------------|
E|---------------------------------------------------------------------------|



Intro:
Riff 1
Riff 2 x2

Verse 1:
Riff 1
Riff 2

Lead into chorus:
Riff 1
Riff 2

Chorus:
Riff 3

Verse 2:
Riff 1
Riff 2

Lead into chorus 2:
Riff 1
Riff 2

Chorus 2:
Riff 3
Riff 4

Then a 7 bar break in the bride with just guitar, bass comes in on the 3rd beat of 8th 
bar. Each – in this riff counts for a quaver (1/8 beat) rather than a crotchet (1/4 beat):

G|---------------------------------------------------------------------------|
D|---------------------------------------------------------------------------|
A|--------------------------------3-3-3--3--3--------------------------------|
E|3--3--4-4-4----4--4-1-1-1--1--1--------------3-3-3-------------------------|

Chorus 3:
Riff 3
Riff 5
Riff 3

| /  slide up
| \  slide down
| h  hammer-on
| p  pull-off
| ~  vibrato
| +  harmonic
| x  Mute note
===============================================================================
Suggest correction
Give kudos to tab author, rate the tab!
1 2 3 4 5
comments
print report bad tab
guest
You may want to rate the tab now too:
select rating
Wanna post a correction for this tab? Suggest correction