Oops, an error
Loading. Please wait.

The Tale Tab

635 views 1 this week
1 commentread comment
1 2 3 4 5
3 more votes to show rating
add to favorites
launch autoscroll
font size
0
reset
how to read this tab
guitar tuner
Autoscroll
slow
fast
+/-
esc
set tempo
stop
Help us to improve Ultimate-Guitar.com Take our survey!
×
Author
Difficulty
novice
Brill song but not too many people have put it up on
tinternet an that! look for it on myyspace, and theres one
vid on youtube. anyways this is pretty much correct but neeeds
the piano etc. so yheeah this is it


Intro and verse:
|----------------------------------------------------|
|------6-6--6-6---6-6--6-6----6-6---6-6--------------|
|------7-7--7-7---7-7--7-7----7-7---7-7--------------|
|---8------8-----7-----7-----------------------------|
|------------------------------8------8--------------|
|----------------------------------------------------|


Breakdown/chorus:

|-----------------------------------------------------|
|--------6------------6------------6----------6-------|
|------7---7-------7----7------7---7- 6-7-9-----------|
|--12----------10-----------8-------------------------|
|-----------------------------------------------------|
|-----------------------------------------------------|

Yeah thats it really simple really good
Suggest correction
Give kudos to tab author, rate the tab!
1 2 3 4 5
comments
print report bad tab
1 comment total.
0 reply
olympics89 10 Sep 14, 2009 03:54 PM

i found a better way to play the chorus

G|--10--|--10--|--10--|-----------|
D|12--12|12--12|12--12|11-12-14-15|

guest
You may want to rate the tab now too:
select rating
Wanna post a correction for this tab? Suggest correction