Oops, an error
Loading. Please wait.

Veiled In Grey Bass Tab

1,877 views 1 this week
1 commentread comment
1 2 3 4 5
excellent!
x 3
add to favorites
launch autoscroll
font size
0
reset
guitar tuner
Tab Pro tools
  • play this tab
  • loop segment
  • change instrument
  • show fretboard
  • metronome
×
Best way to learn
"Veiled In Grey"
Autoscroll
slow
fast
+/-
esc
set tempo
stop
Contributor
Difficulty
novice
-------------------------------------------------------------------------------
			     VEILED IN GREY - Mystery Jets
-------------------------------------------------------------------------------

Tabbed By : Tanjamin
e-mail: ben.c.tan@gmail.com

Tuning: Standard

Intro

G|----------------------|                        |---------------|
D|----------------------|   Repeat 3x, end on:   |---------------|
A|---7--77-7-7--6-6-----|                        |---7--77-7-7---|
E|------------------0---|                        |---------------|

Verse

G|-----------------------|                    |-----------------------|
D|---------------7-6-----|  Repeat 6x, then   |-----------------------|  2x
A|-------------------7---|                    |---------------6-6-6---|
E|---5--55-5-5-----------|                    |---0--00-0-0-----------|

G|-----------------------|-----------------------|-----------------------|---------------|
D|---------------7-6-----|-------------/11---9---|-----------------------|---------------|
A|-------------------7---|-----------------------|---------------6-6-6---|---------------|
E|---5--55-5-5-----------|---7--777-7------------|---0--00-0-0-----------|---0--00-0-0---|

(Repeat All)

Chorus

G|--------------------|
D|--------------------|
A|---7-------9--------|
E|--------------------|

G|---------------------|---------------------|---------------------|---------------------|
D|-------11-11---------|-------9-9-----9-9---|-------7-7-----------|-------7-7-----9-9---|
A|---------------------|---------------------|---------------------|---------------------|
E|---9-9---------------|---7-7-----7-7-------|---5-5---------------|---5-5-----7-7-------|

G|---------------------|---------------------|---------------------|
D|-------11-11---------|-------9-9-----9-9---|-------7-7-----------|
A|---------------------|---------------------|---------------------|
E|---9-9---------------|---7-7-----7-7-------|---5-5---------------|

G|---------------------|---------------------|
D|---------------------|---------------------|
A|---------------------|---------------------|
E|---5-5-5-5-5-5-5-5---|---5-5-5-5-5--4--2---|


G|---------------------|---------------------|---------------------|---------------------|
D|---------------------|---------------------|---------------------|---------------------|
A|---7--777-7--7-7-7---|---7--777-7--7-7-7---|---7--777-7--7-7-7---|---7--777-7----------|
E|---------------------|---------------------|---------------------|---------------------|

Back to verse

Second time playing chorus the main bit is repeated a few times extra. Just listen to 
track and figure it out!
Also, the second time, just skip the last line and go straight to:

Outro

G|-----------------------|-----------------------|
D|-----------------------|-----------------------|
A|---7--777-7--777-7-7---|---7--777-7--777-7-7---|
E|-----------------------|-----------------------|

G|-----------------------|-----------------------|
D|-----------------------|-----------------------|
A|---6--666-6--666-6-6---|---6--666-6--666-6-6---|
E|-----------------------|-----------------------|

G|-----------------------|-----------------------|
D|-----------------------|-----------------------|
A|---4--444-4--444-4-4---|---4--444-4--444-4-4---|
E|-----------------------|-----------------------|

G|-----------------------|--------------------------|
D|-----------------------|--------------------------|
A|---0--000-0--000-0-0---|---0--000-0--/12--11--9---|
E|-----------------------|--------------------------|

Repeat til end

Hopefully this sounds something like the song to you guys, but comments and corrections welcome!

| /  slide up
| \  slide down
| h  hammer-on
| p  pull-off
| ~  vibrato
| +  harmonic
| x  Mute note
===============================================================================
comments
We did not receive enough feedback on this tab! Please rate:
print report bad tab
1 2 3 4 5
1 comment total.
0 reply
PimvdMoosdijk wrote on June 22 2008, 01:17 pm

sounds correct to me ^^

I want to post or [tab]
guest
You may want to rate the tab now too:
select rating
Please do not post tabs as comments. Select "correction" instead!